Guitaretab - guitar tabs
Song name
# A B C D E F G H I J K L M N O P Q R S T U V W X Y Z

Wavves - Weed Demon tab

www.myspace.com/wavves


Tabbed by:Austin Bridges



Tuning:Standard


[ Tab from: http://www.guitaretab.com/w/wavves/184340.html ]
Main Riff:
E-------------------------------------------------------------------|
A------------2------------------------------------------------------|
D------6---1-------1------------------------------------------------|
G---6--6-----2-----2------------------------------------------------|
B---6--4-----------2------------------------------------------------|
E---4---------------------------------------------------------------|


Chorus:
E--------------------------------------------------------------|
A-------2------------------------------------------------------|
D-----1-------1------------------------------------------------|
G-------2-----2------------------------------------------------|
B-------------2------------------------------------------------|
E--------------------------------------------------------------|
Related for Weed Demon tab
Weed Demon chords by Wavves