Wavves - To The Dregs tab

All of the tabs for this that I've seen are missing a small part so I figured I'd put 
together.

e|----------------|
B|----------------|
G|----------------|
D|-3--7-----------|
A|-3--7-----------|
E|-1--5-----------|     play these two chords multiple times each over and over, and 
makes up most of the song

then there's this part:

e|--------------------------------|
B|--------------------------------|
G|--------------------------------|
D|-10--8---8-7-8-7---3--7---8-7---|
A|-10--8---8-7-8-7---3--7---8-7---|
E|--8--6---6-5-6-5---1--5---6-5---|
Tap to rate this tab
 
# A B C D E F G H I J K L M N O P Q R S T U V W X Y Z