Song name
# A B C D E F G H I J K L M N O P Q R S T U V W X Y Z

Wavves - King Of The Beach chords

Highlighted       Show chord diagrams
-----------------------------------------------------------------------------
			  King of the Beach -- Wavves
-----------------------------------------------------------------------------
Tabbed by: glazeglaze

Tuning: Standard

Intro:

E Bm E Bm E Bm C#m G#m x2

Verse:


E Bm E Bm E Bm C#m G#m x4


Chorus:

C#m D#m G#m x4

Preverse (same as intro)

Verse

Chorus

Bridge

I don't know what these chord names are but this is the position:

e|---3-/-5-/-7---|
B|---3-/-5-/-7---|
G|---5-/-7-/-9---|  x2
D|---5-/-7-/-9---|  
A|---x---x---x---|
E|---x---x---x---|


Chorus

Preverse

End on E
Tap to rate this tab
 
# A B C D E F G H I J K L M N O P Q R S T U V W X Y Z