Song name
# A B C D E F G H I J K L M N O P Q R S T U V W X Y Z

Wavves - So Bored tab

This is just the ending of the song, I haven't seen it tabbed anywhere else.

e|----------------0---|
B|-0-2--0-2--0-2----2-|
G|--------------------|
D|--------------------|
A|--------------------|
E|--------------------|

e|----------------2---|
B|-0-2--0-2--0-2----2-|
G|--------------------|
D|--------------------|
A|--------------------|
E|--------------------|

e|----------------0---|
B|-0-2--0-2--0-2----2-|
G|--------------------|
D|--------------------|
A|--------------------|
E|--------------------|

e|--------------------|
B|-0-2--0-2--0-2--0---|
G|------------------2-|
D|--------------------|
A|--------------------|
E|--------------------|

e|---------------------------|
B|-0000000000000000222222225-|
G|---------------------------|
D|---------------------------|
A|---------------------------|
E|---------------------------|
Tap to rate this tab
 
# A B C D E F G H I J K L M N O P Q R S T U V W X Y Z