Wavves - Take On The World tab

-----------------------------------------------------------------------------
		     Take on the World - Wavves
-----------------------------------------------------------------------------
Tabbed by: LoFiHiFi


Tuning:EADGBe
       |      Part 1           |   | Part 2                               |
e|-9-7-|-3-------7------8------|-5-|-x------0-----x------0-----x-----0----|
B|-9-7-|-3-------7------8------|-5-|-x------0-----x------0-----x-----0----|
G|-9-7-|-4-------8------9------|-4-|-x------1-----x------1-----x-----1----|
D|-9-7-|-5--x16--9--x8--10--x6-|-7-|-x-x15--2-x3--x-x15--2-x3--x-x15-2-x3-|
A|-7-5-|-5-------9------10-----|-7-|-x------2-----x------2-----x-----2----|
E|-----|-3-------7------8------|-5-|-x------0-----x------0-----x-----0----|

 |          Part 3               |
e|-0----3----0----3----0----3----|
B|-0----3----0----3----0----3----|
G|-1----4----1----4----1----5----|
D|-2-x8-5-x8-2-x8-5-x8-2-x8-5-x8-|
A|-2----5----2----5----2----5----|
E|-0----3----0----3----0----3----|

Part 1
Part 2
Part 3
Part 1
Part 2
Part 3

************************************

| /   slide up
| \   slide down
| h   hammer-on
| p   pull-off
| ~   vibrato
| +   harmonic
| x   Mute note
| b   Bend
| pb  Pre-bend
| br  Bend release
| pbr Pre-bend release
| brb Bend release bend

************************************
Tap to rate this tab
 
# A B C D E F G H I J K L M N O P Q R S T U V W X Y Z