Song name
# A B C D E F G H I J K L M N O P Q R S T U V W X Y Z

Wavves - California Goths tab

e|--------------------------------------------------|
B|--------------------------------------------------|
G|--------------------------------------------------|
D|--------------------------------------------------|
A|-------------------------10-10-10-10--9--9--9--9--|
E|--0--3--5--7--5--3--0--3--8--8--8--8--7--7--7--7--|

And then later it goes

e|--------------------------------------------------------------|
B|--------------------------------------------------------------|
G|--------------------------------------------------------------|
D|--------------------------------------------------------------|
A|-------------------------10-10-10-10--9--9--9--9-12-12-12-12--|
E|--0--3--5--7--5--3--0--3--8--8--8--8--7--7--7--7-10-10-10-10--|
Tap to rate this tab
 
# A B C D E F G H I J K L M N O P Q R S T U V W X Y Z