Wavves - So Bored tab

Intro:

e|------------0-----------------|
B|--------------0---------------|
G|------------------------------|
D|----7-----------7----11----12-|
A|----7----------------11----12-|
E|----5-----------------9----10-|


_________________________________________________________________

Verse x 6
e|-------------------------------------------------------------|
B|-------------------------------------------------------------|
G|-------------------------------------------------------------|
D|--7---------11----------12-----------------------------------|
A|--7--x16----11--x8------12--x8-------------------------------|
E|--5----------9----------10-----------------------------------|



Chorus x 2
e|-------------------------------------------------------------|
B|-------------------------------------------------------------|
G|-------------------------------------------------------------|
D|--7---------11---------4----------12-------------------------|
A|--7--x8-----11--x8-----4--x8------12--x8---------------------|
E|--5----------9---------2----------10-------------------------|

Verse x 4
e|-------------------------------------------------------------|
B|-------------------------------------------------------------|
G|-------------------------------------------------------------|
D|--7---------11----------12-----------------------------------|
A|--7--x16----11--x8------12--x8-------------------------------|
E|--5----------9----------10-----------------------------------|


Chorus x 2
e|-------------------------------------------------------------|
B|-------------------------------------------------------------|
G|-------------------------------------------------------------|
D|--7---------11---------4----------12-------------------------|
A|--7--x8-----11--x8-----4--x8------12--x8---------------------|
E|--5----------9---------2----------10-------------------------|


Verse x 6
e|-------------------------------------------------------------|
B|-------------------------------------------------------------|
G|-------------------------------------------------------------|
D|--7---------11----------12-----------------------------------|
A|--7--x16----11--x8------12--x8-------------------------------|
E|--5----------9----------10-----------------------------------|
Chorus x 4
e|-------------------------------------------------------------|
B|-------------------------------------------------------------|
G|-------------------------------------------------------------|
D|--7---------11---------4----------12-------------------------|
A|--7--x8-----11--x8-----4--x8------12--x8---------------------|
E|--5----------9---------2----------10-------------------------|

_________________________________________________________________

During the solo you just play the verse some more
 Verse x  5?
e|-------------------------------------------------------------|
B|-------------------------------------------------------------|
G|-------------------------------------------------------------|
D|--7---------11----------12-----------------------------------|
A|--7--x16----11--x8------12--x8-------------------------------|
E|--5----------9----------10-----------------------------------|
_________________________________________________________________

I think Im hearing this riff randomly inserted in the song. Dont kill me if you cant hear it.

e|-------------------------------------------------------------|
B|-------------------------------------------------------------|
G|-------------------------------------------------------------|
D|-------------------------------------------------------------|
A|--5-5-4-4----------------------------------------------------|
E|----------7-7-5-5-7-7-5-5------------------------------------|
_________________________________________________________________
Solo x 2
e|----------------------------------|
B|----------------------------------|
G|----------------------------------|
D|----------------------------------|
A|--9-11-9-11-9-11-9-11-14-11-------|
E|----------------------------------|
Play this three times

e|----------------------------------------|
B|----------------------------------------|
G|----------------------------------------|
D|--------------12------------------------|
A|--9-11-9-11-9---------------------------|
E|----------------------------------------|
Play this once
________________________________________________________________


e|---------------------------------------------|
B|---------------------------------------------|
G|---------------------------------------------|
D|--9-11-14------------------------------------|
A|---------------------------------------------|
E|---------------------------------------------|
End on this
Tap to rate this tab
 
# A B C D E F G H I J K L M N O P Q R S T U V W X Y Z