Song name
# A B C D E F G H I J K L M N O P Q R S T U V W X Y Z

Wavves - Friends Were Gone tab

-----------------------------------------------------------------------------
	                           Friends Were Gone - Wavves
-----------------------------------------------------------------------------
Tabbed by:LoFiHiFi
Tuning: EADGBe

 |      Verse         |
e|-------------5------|
B|-5-----9-----5------|
G|-5-----9-----6------|
D|-5-x8--9-x2--7-x8---| Play this 2 times
A|-3-----7-----7------|
E|-------------5------|
 |       Chorus      |                  
e|-------------5-----|
B|-10-9---7----5-----|
G|-10-9---7----6-----|
D|-10-9---7-x8-7-x8--| Play this 2 times
A|-8--7---5----7-----|
E|-------------5-----|

For the solo, Nathan turned the flanger effect
on high and strummed the heck out of chorus.

Verse
Chorus 
Verse
Chorus 
Solo

Listen to the song for timing. It's EASY :)
Tap to rate this tab
 
# A B C D E F G H I J K L M N O P Q R S T U V W X Y Z