Wavves - Satan Try To Stop Me tab

-------------------------------------------------------------------------------
			 Satan Try To Stop Me - Wavves
-------------------------------------------------------------------------------
Tabbed by: Conor
Site: doublec.tumblr.com

Tuning: Standard

e|-----3-3-2-2-----|
B|-----4-4-3-3-1-1-|
G|-4-4-3-3-2-2-2-2-|
D|-5-5---------2-2-|
A|-5-5-------------|
E|-3-3-------------|
"leave em dead where he stands, don't know where i'll go"

Play this progression throughout and time it. A great song and nothing like Wavves other 
stuff. Kinda beautiful.
Tap to rate this tab
 
# A B C D E F G H I J K L M N O P Q R S T U V W X Y Z