Song name
# A B C D E F G H I J K L M N O P Q R S T U V W X Y Z

Wavves - Horse Shoes tab

-------------------------------------------------------------------------------
			     "Horse Shoes" - Wavves
-------------------------------------------------------------------------------
Tabbed by: Conor
Tumblr: doublec.tumblr.com

Tuning: Standard

Intro / Verse (bar these chords):

e|------------------------|
B|------------------------|
G|-11-11-11-8-8-8---------|
D|-12-12-12-9-9-9---------|
A|-12-12-12-9-9-9---------|
E|-10-10-10-7-7-7---------|
    "i knowwwwwww"

Play this for awhile. When the drums kick in just let go of the bar and just play all 
the other strings open. Use a heavy distortion pedal if you can.

Chorus (no bar):

e|------------------------------------------|
B|------------------------------------------|
G|-11-11-11-11-11-11-11-8-8-8-8-8-7-7-7-7-7-|
D|-12-12-12-12-12-12-12-9-9-9-9-9-8-8-8-8-8-|
A|-12-12-12-12-12-12-12-9-9-9-9-9-8-8-8-8-8-|
E|-10-10-10-10-10-10-10-7-7-7-7-7-6-6-6-6-6-|
   "hitch a ride through a horse, no shoooes"

Listen to the track and time it right.

Trash:
Right at the end of the second run through of the chorus, hold onto the last chord.

e|---|
B|---|
G|-7-| Strum this for a little bit then go into these:
D|-8-|
A|-8-|
E|-6-|

e|-----------------------------------------------|
B|-----------------------------------------------|
G|-6-5-4-2-2-2-2-2-2-2-2-2-2-7-7-7-7-7-7-7-7-7-7-|
D|-7-6-5-3-3-3-3-3-3-3-3-3-3-8-8-8-8-8-8-8-8-8-8-|  x2
A|-7-6-5-3-3-3-3-3-3-3-3-3-3-8-8-8-8-8-8-8-8-8-8-|
E|-5-4-3-1-1-1-1-1-1-1-1-1-1-6-6-6-6-6-6-6-6-6-6-|

At the end of the second time cut right after a couple strums of the last chord. Then go 
right back into the Verse progression.

Intro/Verse
Chorus
Thrash
Intro/Verse
Chorus
Thrash + Noise freakout until the end.

Its a fairly easy song, it just takes time to time everything right.
Tap to rate this tab
 
# A B C D E F G H I J K L M N O P Q R S T U V W X Y Z