Song name
# A B C D E F G H I J K L M N O P Q R S T U V W X Y Z

Wavves - Post-acid tab

this is how its played-
intro (phaser effect)               part4
e-0--00-0-0--0--------------|      e-0-----5----0--------5-----|      
B-0--00-0-0--0--------------|      B-0-----5----0--------5-----|
G-1--11-1-1--1--------------|      G-1-----6----1--------6-----|
D-2--22-2-2--2--------------|      D-2-----7----2--------7-----|
A-2--22-2-2--2--------------|      A-2-----7----2--------7-----|
E-0--00-0-0--0--------------|      E-0-----5----0--------5-----|

part1
e-0--0--0---------------------|
B-0--2--2---------------------|
G-1--3--2---------------------| x2
D-2--4--2---------------------|
A-2-----0---------------------|
E-0---------------------------| 

part2 
e--0-4-2-0--0--------------|
B--2--------0--------------|    
G--3--------1--------------|x2      
D--4--------2--------------|      
A-----------2--------------|
E-----------0--------------|

part3
e-0--7--5--0--5--------|
B-0--7--5--0--5--------|
G-1--8--6--1--6--------|
D-2--9--7--2--7--------|
A-2--9--7--2--7--------|
E-0--7--5--0--5--------|

Misery (part1)
Will you comfort me?  
In my time of need
Would you understand?
(part1)
Understand, won't you understand?
In my time of need
Would you understand?
(part2)
That I'm just havin fun
That I'm just havin fun
(part3)
With youuuuuuuuuuuuuuuuuuuuuuuuuuuuuuuuuuuuu
With youuuuuuuuuuuuuuuuuuuuuuuuuuuuuuuuuuuuu
With youuuuuuuuuuuuuuuuuuuuuuuuuuuuuuuuuuuuu
(part1)
Hold my hand
Won't you hold my hand
In my time of need
Would you understand?
(part1)
Understand, won't you understand
In my time of need
Would you understand?
(part2)
That I'm just havin funnnnnnnnnnnnnnnnnnnn
That I'm just havin funnnnnnnnnnnnnnnnnnnn
That I'm just havin funnnnnnnnnnnnnnnnnnnn
(part 3)
With youuuuuuuuuuuuuuuuuuuuuuuuuuuuuuuuuuuuu
With youuuuuuuuuuuuuuuuuuuuuuuuuuuuuuuuuuuuu
With youuuuuuuuuuuuuuuuuuuuuuuuuuuuuuuuuuuuu
(part 4)
YOU-U-AU-AHHH-UAHH-YAHUU
(part 3)
With youuuuuuuuuuuuuuuuuuuuuuuuuuuuuuuuuuuuu
With youuuuuuuuuuuuuuuuuuuuuuuuuuuuuuuuuuuuu
With youuuuuuuuuuuuuuuuuuuuuuuuuuuuuuuuuuuuu
just end it with a bunch of down strums on
5-7-7-6-5-5
Tap to rate this tab
 
# A B C D E F G H I J K L M N O P Q R S T U V W X Y Z