Song name
# A B C D E F G H I J K L M N O P Q R S T U V W X Y Z

Wavves - I Wanna Meet Dave Grohl tab

What I have so far, and since there's no tabs out there for this yet, it's better than nothing.

Bass intro:

e|---------------------------------|
B|---------------------------------|
G|---------------------------------|
D|---------------------------------|
A|-55-55-5-22-22-2-----------------|
E|-----------------55-55-5-33-33-3-|

Then the guitar comes in

e|---------------------------------|
B|---------------------------------|
G|-----------------7-------9-99-9--|
D|---------------------------------|
A|---------------------------------|
E|---------------------------------|

e|---------------------------------|
B|---------------------------------|
G|----------------9b9b9b9b9b9b9b9b-|
D|---------------------------------|
A|---------------------------------|
E|---------------------------------|

Verse:

Guitar 1

e|---------------------------------|\
B|---------------------------------| \
G|-7-7-7-7-7-7-7-7-7-7-7-7-7-7-7-7-|  \
D|-7-7-7-7-7-7-7-7-7-7-7-7-7-7-7-7-|   \
A|-5-5-5-5-5-5-5-5-5-5-5-5-5-5-5-5-|    \
E|---------------------------------|     \
                                          6x
e|---------------------------------|     /
B|---------------------------------|    /
G|-4-4-4-4-4-4-4-4-----------------|   /
D|-4-4-4-4-4-4-4-4-7-7-7-7-7-7-7-7-|  /
A|-2-2-2-2-2-2-2-2-7-7-7-7-7-7-7-7-| /
E|-----------------5-5-5-5-5-5-5-5-|/

e|---------------------------------|
B|---------------------------------|
G|---------------------------------|
D|-5-5-5-5-5-5-5-5-5-5-5-5-5-5-5-5-|
A|-5-5-5-5-5-5-5-5-5-5-5-5-5-5-5-5-|
E|-3-3-3-3-3-3-3-3-3-3-3-3-3-3-3-3-|

Guitar 2

e|---------------------------------|
B|---------------------------------|
G|-7-7-----------7-7---------------|
D|-----9-9-7-7-9-----9-9-7-7-9-----|
A|---------------------------------|
E|---------------------------------|

e|---------------------------------|
B|---------------------------------|
G|-7-7-----------7-7---------------|
D|-----9-9-7-7-9-----9-9-7-7-9-----|
A|---------------------------------|
E|---------------------------------|

e|-------------------------------------------|
B|-7-7-7-7-7-7-7-7-7b-7b-7b-7b-7b-7b-7b-7b---|
G|-------------------------------------------|
D|-------------------------------------------|
A|-------------------------------------------|
E|-------------------------------------------|

Chorus is the same as the verse, up until the "I wanna meet Dave Grohl" part, 
which is something different. Anyway, that's all I have figured out so far.
Tap to rate this tab
# A B C D E F G H I J K L M N O P Q R S T U V W X Y Z