Song name
# A B C D E F G H I J K L M N O P Q R S T U V W X Y Z

Wavves - Poor Lenore tab

-------------------------------------------------------------------------------
			     Poor Lenore - WAVVES
-------------------------------------------------------------------------------
Tabbed by: Conor
Email: conor.curran8@gmail.com
Tuning: Standard

This is all I've gotten so far. Maybe someone can add on to it.

Chorus Chords:
e|--5-----7-----3-------------|
B|--5-----7-----3-------------|
G|--6-x3--8-x3--4-x3--1-x3----|
D|--7-----9-----5-----2-------|
A|--7-----9-----5-----2-------|
E|--5-----7-----3-----0-------|

Verse Chords:
e|--12-----3-----7--------|
B|--12-----3-----7--------|
G|--11-x3--4-x3--6-x7-----|
D|--12-----5-----9--------|
A|--12-----5-----9--------|
E|--10-----3-----7--------|

Then this comes in during the "night terrors" part:
e|-----------------------|
B|-----------------------|
G|-----------------------|
D|-----------------------|
A|-5--7--3----5--3--2----|
E|-----------------------|

I'm pretty sure the guitar picking in the beginning is just the verse chords. But I have 
no idea about the solo. If someone has it just comment and I'll add it to the tab.
Tap to rate this tab
# A B C D E F G H I J K L M N O P Q R S T U V W X Y Z