Song name
# A B C D E F G H I J K L M N O P Q R S T U V W X Y Z

Wavves - California Goth tab

e|----------------------------------------------|
B|----------------------------------------------|
G|----------------------------------------------|
D|--11------9--11------9--11------9--11------9--|
A|--11--x7--9--11--x7--9--11--x7--9--11--x7--9--|
E|--9-------7--9-------7--9-------7--9-------7--|
"we are a perfect people..."

e|------------------------------------------|
B|------------------------------------------|
G|------------------------------------------|
D|--7------5--7------5--7------5--7------5--|
A|--7--x7--5--7--x7--5--7--x7--5--7--x7--5--|
E|--5------3--5------3--5------3--5------3--|
"i am a perfect person..."

just repeat this all the way through. it's really easy :)
Tap to rate this tab
# A B C D E F G H I J K L M N O P Q R S T U V W X Y Z