Song name
# A B C D E F G H I J K L M N O P Q R S T U V W X Y Z

Wavves - Nine Is God tab

Nine Is God - Wavves (From the GTA V soundtrack)
Transcribed by FUDGEcenter

Taken from their live performance on Conan.

Tuning: EADGBe


Intro/Verses:
  
   x4 x6 x12 
e|--4--4--2--|
B|--4--4--2--|
G|--6--5--3--|
D|--6--6--4--|
A|--4--6--4--|
E|--4--4--2--|


Chorus: 
 
e|--0--4--|
B|--0--4--|
G|--1--5--|
D|--2--6--|
A|--2--6--|
E|--0--4--|



@1:59
e|--0--4--5--|
B|--0--4--5--|
G|--1--5--6--|
D|--2--6--7--|
A|--2--6--7--|
E|--0--4--5--|


@2:02  
e|--0--5--4--|
B|--0--5--4--|
G|--1--6--5--|
D|--2--7--6--|
A|--2--7--6--|
E|--0--5--4--|


@3:21: Play this out until the end

   x6
e|--0--------------------|
B|--0--------------------|
G|--1------6--------5----|
D|--2------7-7------6-6--|
A|--2----7--------6------|
E|--0--5--------4--------|


Tap to rate this tab
# A B C D E F G H I J K L M N O P Q R S T U V W X Y Z