Song name
# A B C D E F G H I J K L M N O P Q R S T U V W X Y Z

Wavves - Convertible Balloon tab

Tuning: Standard



Intro
e|--------------------------|
B|--------------------------|
G|-66-666-8--6-6------------|
D|--------------------------|
A|--------------------------|
E|--------------------------|


"Shinin' in the sun..."
e|-------------------------------------------------------------|
B|-------------------------------------------------------------|
G|-6-6---------6-6---------3-3---------3-3---------------------|
D|-----6666666-----6666666-----4444444-----4444444-------------|
A|-------------------------------------------------------------|2x
E|-------------------------------------------------------------|


"Drivin' around..."
e|-------------------------------------------------------------|
B|-------2-4-2--4-6-4-2----------------------------------------|
G|---1-3----------------3-3---------3-3------------------------|
D|-4------------------------4444444-----4444444----------------|
A|-------------------------------------------------------------|2x
E|-------------------------------------------------------------|


Bridge
e|-------------------------------------------------------------|
B|-------2-4-2-----------2------------2-4-2--------------------|
G|---1-3-------3-1---1-3---3------1-3-------3-1---1-3-1--------|
D|-4---------------4------------4---------------4-------4------|
A|-------------------------------------------------------------|
E|-------------------------------------------------------------|

e|-----------------------|
B|-----------------------|
G|-66-666-8--------------|
D|-----------------------|
A|-----------------------|
E|-----------------------|


"Lyin' inside..."
e|-------------------------------------------------------------|
B|-------------------------------------------------------------|
G|-6-6---------6-6---------3-3---------3-3---------------------|
D|-----6666666-----6666666-----4444444-----4444444-------------|
A|-------------------------------------------------------------|2x
E|-------------------------------------------------------------|


"Sittin' alone..."
e|-------------------------------------------------------------|
B|-------2-4-2--4-6-4-2----------------------------------------|
G|---1-3----------------3-3---------3-3------------------------|
D|-4------------------------4444444-----4444444----------------|
A|-------------------------------------------------------------|2x
E|-------------------------------------------------------------|


Bridge
e|-------------------------------------------------------------|
B|-------2-4-2-----------2------------2-4-2--------------------|
G|---1-3-------3-1---1-3---3------1-3-------3-1---1-3-1--------|
D|-4---------------4------------4---------------4-------4------|
A|-------------------------------------------------------------|
E|-------------------------------------------------------------|

e|-------------------------------------|
B|-------------------------------------|
G|-66-66-66-66-66-66-66-66-66-66-------|
D|-------------------------------------|
A|-------------------------------------|
E|-------------------------------------|


Outro
e|----------------------------------------------------------------------|
B|-2-2---2---4-2-2---2-4s6-4----------------------------2h4-2-----------|
G|----1h3-1h3-----1h3---------3-3-----3-----6-3-3-----3-----------------|
D|--------------------------------4h6---4h6-------4h6-------------------|
A|----------------------------------------------------------------------|2x
E|----------------------------------------------------------------------|

e|-------------------------------------------------------------|
B|-------2-4-2--4-6-4-2----------------------------------------|
G|---1-3----------------3---------88-88-8----------------------|
D|-4-----------------------------------------------------------|
A|-------------------------------------------------------------|2x
E|-------------------------------------------------------------|

           (11)                (11)                 (11)                 (11)
e|-9-9-11111111111111-9-9-11111111111111-13-13-11111111111111-13-13-11111111111111-----(9)--|
B|------------------------------------------------------------------------------------------|
G|------------------------------------------------------------------------------------------|
D|------------------------------------------------------------------------------------------|
A|------------------------------------------------------------------------------------------|4x
E|------------------------------------------------------------------------------------------|



Email me for questions or suggestions simianalejandro@gmail.com
Tap to rate this tab
# A B C D E F G H I J K L M N O P Q R S T U V W X Y Z