Song name
# A B C D E F G H I J K L M N O P Q R S T U V W X Y Z

Wax Fang - Majestic tab

E-------------------------------------------------------|
B-----5/7-7777-7777-7777-5-3-3p0~~~~~-----3/5-5555-5555-|
G-7~~~--------------------------------------------------|
D-------------------------------------------------------|
A-------------------------------------------------------|
E-------------------------------------------------------|

E-------------------------------------------------------|
B--555-3-2-----------------5/7-7777-7777-7777--5-3-3p0~~|
G----------4-2~~~~~---7~~~~-----------------------------|
D-------------------------------------------------------|
A-------------------------------------------------------|
E-------------------------------------------------------|

E-------------------------------------------------------|
B-2-3~~~~~~-----3/5-5555-5555-555-3-2-------------------|
G-------------------------------------4-2~~~~~----------|
D-------------------------------------------------------|
A-------------------------------------------------------|
E-------------------------------------------------------|


Band website: http://waxfang.com/

Majestic: http://www.youtube.com/watch?v=xYSVFy2UHaA
Tap to rate this tab
# A B C D E F G H I J K L M N O P Q R S T U V W X Y Z