Song name
# A B C D E F G H I J K L M N O P Q R S T U V W X Y Z

Wax Mannequin - Tell The Doctor tab

-----------------------------------------------------------------------------
                             TELL THE DOCTOR - Wax Mannequin
-----------------------------------------------------------------------------
Tabbed by: Corbe
E-mail:vhabyeryemyennahyah_corbe@hotmail.com

Tuning:Half-Step Down

Intro of Organ

G#5     E5
C#5           G#5                E5        E5   F#5
you致e got to tell the doctor to believe me

he値l make it real he値l make it real he値l make it real 
no no, no no, no no, no no, no no
you致e got to tell the doctor to believe me
he値l give it form, he値l give it form, he値l give it form
no no, no no, no no, no no, no no

                                    x3
e|---------|--------|--------|--------|----------------|
B|o--------|--------|9-9-9-9-|-------o|----------------|
G|-6-6-6-6-|6-6-6-6-|9-9-9-9-|--------|----------------|
D|-7-7-7-7-|7-7-7-7-|9-9-9-9-|8-8-898-|7-7-7-7-9-9-9-9-|
A|o7-7-7-7-|7-7-7-7-|7-7-7-7-|9-9-999o|7-7-7-7-9-9-9-9-|
E|-5-5-5-5-|5-5-5-5-|--------|6-6-666-|5-5-5-5-7-7-7-7-|
           
he gets good medicine from the gears
good medicine from the gears
good medicine from the gears
no no, no no, no no

you致e got to tell the pusher to believe me
he値l make it eas, he値l make it eas, he値l make it easy
no no, no no, no no, no no, no no
you致e got to tell street dealer to amaze me
he痴 got a gun, he痴 got a gun, he痴 got a gun
bang bang, bang bang, gun gun, gun gun, gun gun, gun

he brings bad medicine from the back
bad medicine from the back
bad medicine from the back the back of the class
bad medicine from the back
no no, no no, no no

dah,     alright you致e got to quench it do it right
no no,   doctor you致e got to fuel it to put it out
dah,     alright you致e got to quench it do it right
ooooooo
  A                  A                E                Bb+
e|------------------|----------------|----------------|----------------|
B|------------------|----------------|----------------|----------------|
G|------------------|----------------|----------------|----------------|
D|------------------|--------7-------|6---------------|----------------|
A|------------------|----------------|--9-7-----------|----------------|
E|------------------|----------------|----------------|6-------7---9~--|
  A                  A                E                Bb+
e|------------------|----------------|----------------|----------------|
B|------------------|----------------|----------------|----------------|
G|------------------|----------------|----------------|----------------|
D|------------------|--------7-------|6-------11------|----------------|
A|------------------|----------------|--9-7-----119-7-|9p7-7-----------|
E|(9)---------------|----------------|----------------|--------9-7-5~--|

  A                  A                E                Bb+
e|------------------|----------------|----------------|----------------|
B|------------------|----------------|----------------|----------------|
G|------------------|----------------|----------------|----------------|
D|------------------|--------7-------|6---------------|----------------|
A|------------------|----------------|--9-7-----------|----------------|
E|------------------|----------------|----------------|6-------7---9~--|
                            meow     meow moew moew    moew   moew moew 

  A5                  B5                
e|----------------|----------------|
B|----------------|----------------|
G|----------------|----------------|
D|----------------|9~--------------|
A|--------7---9---|----------------|
E|----------------|----------------|
          oo  oo    oooooo


you致e got to tell the preacher to forgive me,   fuck
don稚 want to boing, don稚 want to boing, don稚 want to boing
boing boing, boing boing, boing boing, boing boing boing boing
you致e got to tell the preacher to forgive me,   I say
he値l make me bleed he値l make me bleed he値l make me bleed
bleed bleed, bleed bleed, bleed bleed, bleed bleed, bleed bleed

he cooks christ痴 medicine in his cock
keeps christ痴 medicine in his cock
christ痴 medicine in his cock
burn burn, doctor doctor





************************************

| /   slide up
| \   slide down
| H   hammer-on
| p   pull-off
| ~   vibrato
| +   harmonic
| x   Mute note
| B   Bend
| pb  Pre-bend
| br  Bend release
| pbr Pre-bend release
| brb Bend release bend

************************************
Tap to rate this tab
# A B C D E F G H I J K L M N O P Q R S T U V W X Y Z