Song name
# A B C D E F G H I J K L M N O P Q R S T U V W X Y Z

Wax Mannequin - Other Part chords

Highlighted       Show chord diagrams
-----------------------------------------------------------------------------
                             OTHER PART – Wax Mannequin
-----------------------------------------------------------------------------
Tabbed by:Corbe 
E-mail:

Tuning:Standard

Verse
  Am      Em  F   Am                      Em  F   C       Em+6
e|-0-0-0-0-0-0-1-1-0-0-0-0-0-0-0-0-0-0-0-0-0-0-1-1-0-0-0-0-0-0-0-0-|
B|-1-1-1-1-0-0-1-1-1-1-1-1-1-1-1-1-1-1-1-1-0-0-1-1-1-1-1-1-1-1-1-1-|
G|-2-2-2-2-0-0-2-2-2-2-2-2-2-2-2-2-2-2-2-2-0-0-2-2-0-0-0-0-0-0-0-0-|
D|-2-2-2-2-2-2-3-3-2-2-2-2-2-2-2-2-2-2-2-2-2-2-3-3-2-2-2-2-2-2-2-2-|
A|0---0-----2---3-0---0---0---0---0---0-----2---3-3---3---2---2----|
E|--3---3-0---1-----3---3---3---3---3---3-0---1-----3---3---0---0--|

Chorus
  Am      Em      F       Em       Am      Em      F       Dm  
e|-0-0-0-0-0-0-0-0-1-1-1-1-0-0-0-0|-0-0-0-0-0-0-0-0-0-0-0-0-1-1-1-1|
B|-1-1-1-1-0-0-0-0-1-1-1-1-0-0-0-0|-1-1-1-1-0-0-0-0-1-1-1-1-3-3-3-3|
G|-2-2-2-2-0-0-0-0-2-2-2-2-0-0-0-0|-2-2-2-2-0-0-0-0-2-2-2-2-2-2-2-2|
D|-2-2-2-2-2-2-2-2-3-3-3-3-2-2-2-2|-2-2-2-2-2-2-2-2-3-3-3-30---0---|
A|0---0-----2---2---3---3-2---2---|0---0-----2---2---3---3---0---0-|
E|--0---0-0---0---1---1-----0---0-|--0---0-0---0---1---1-----------|

  Am      Em      C   G   Am        
e|-0-0-0-0-0-0-0-0-3-3-3-3-0-0-0-0|
B|-1-1-1-1-0-0-0-0-1-1-0-0-0-0-0-0|
G|-2-2-2-2-0-0-0-0-0-0-0-0-0-0-0-0|
D|-2-2-2-2-2-2-2-2-2-2-0-0-2-2-2-2|
A|0---0-----2---2---3---2-2---2---|
E|--0---0-0---0---3---3-----0---0-|

Moon is flashing thought the black of passing tree 
this is your love that follows  often watching me, so I believe
endless forest hunt this north Ontario ride 
stillborn lake we flood with black moon spiral sky, I close my eyes

hey don't you know part of you consoles
another part will burn me like a coal
don't you believe part of me concedes
another part fights to be free
how did you know I need to be controlled
I leave you or I lose my soul

its a bond its skin his heart is bold
not a wedding vow its not a bank bought home, nothing we own
boy he's gifted us by blind design above
not your fathers god but by our tremors of, in perfect love

hey don't you know a part you consoles 
another part burns me like a coal
don't you believe when part of me concedes 
another part will fight you to be free
how did you know I need to be controlled
I leave you or I lose my soul

hey don't you know a part you consoles 
another part burns me like a coal
don't you believe when part of me concedes 
another part will fight you to be free
time after time I need to be confined 
ill find you or ill lose my mind.

************************************

| /   slide up
| \   slide down
| H   hammer-on
| p   pull-off
| ~   vibrato
| +   harmonic
| x   Mute note
| B   Bend
| pb  Pre-bend
| br  Bend release
| pbr Pre-bend release
| brb Bend release bend

************************************

Tap to rate this tab
# A B C D E F G H I J K L M N O P Q R S T U V W X Y Z