Song name
# A B C D E F G H I J K L M N O P Q R S T U V W X Y Z

Wax On Radio - Today I Became A Realist tab

played with capo on 7th fret

  verse riff a
E|-0---0----0--0--0--------------------|
B|-0---1----0--3--1--------------------|
G|-0---2----0--2--2--------------------|
D|-2---2----2--0--2--------------------|
A|-2---0----2--2--0--------------------|
E|-0--------0--------------------------|

   verse riff b

E|-0--------0-0-0---------0-0-------------------|
B|-0--------3-3-1---------0-0-------------------|
G|-0--------0-2-0---------2-0-------------------|
D|-2--------0-0-2---------0-2-------------------|
A|-2--------2---3---------0-3-------------------|
E|-0--------3-----------------------------------|

  bridge thing
E|-0------------0---------|
B|-0-h1p0-------0---------|
G|-0-------0-h2---2p0-----|
D|-2----------------------|
A|------------------------|
E|------------------------|

E|---------------------------------------|
B|---------------------------------------|
G|------2p0---2p0---2h4-----4---4--------|
D|--2-------2-----2-----2-----2---2------|
A|---------------------------------------|
E|---------------------------------------|

E|-------------------------------------|
B|-------------------------------------|
G|--5p0---4p0---2p0-2h4---4---4--------|
D|------2-----2---------2---2---2------|
A|-------------------------------------|
E|-------------------------------------|

E|-------------------------------------|
B|------7p0---8p0---7p0---5p0---5p0----|
G|-------------------------------------|
D|--7-------7-----7-----7-----7--------|
A|-------------------------------------|
E|-------------------------------------|

E|-------------------------------------|
B|------7p0---8p0---0h1p0---0h1p0------|
G|----------------0-------2-------0----|
D|--7-------7--------------------------|
A|-------------------------------------|
E|-------------------------------------|

E|---------------------------------------|
B|---------------------------------------|
G|------2p0---2p0---2h4-----4---4--------|
D|--2-------2-----2-----2-----2---2------|
A|---------------------------------------|
E|---------------------------------------|

E|-------------------------------------|
B|-------------------------------------|
G|--5p0---4p0---2p0-2h4---4---4--------|
D|------2-----2---------2---2---2------|
A|-------------------------------------|
E|-------------------------------------|

E|-------------------------------------|
B|------7p0---8p0---7p0---5p0---5p0----|
G|-------------------------------------|
D|--7-------7-----7-----7-----7--------|
A|-------------------------------------|
E|-------------------------------------|

E|-------------------0---0-0-0---0-0---|
B|------7p0---8p0----0h1-1-1-1p0-0-0---|
G|----------------0--2---2-2-2---2-2---|
D|--7-------7--------2---2-2-2---2-2---|
A|-------------------------------------|
E|-------------------------------------|

   ending thing
E|-------------------------------------|
B|-0---0--1-------1--------------------|
G|-0---0--0-------0-0------------------|
D|-5---5--2-0h2-2-----0h2--------------|
A|-7---5--3----------------------------|
E|-------------------------------------|
              
E|-------------------------------------|
B|-3------3----3---3-------------------|
G|-0------2----2---2-------------------|
D|-0------0----0---0-------------------|
A|-2------0----0---0-------------------|
E|-3------2----3---2-------------------|
Tap to rate this tab
# A B C D E F G H I J K L M N O P Q R S T U V W X Y Z