Song name
# A B C D E F G H I J K L M N O P Q R S T U V W X Y Z

Wax - Two Wheels tab

                             Two Wheels - Wax
Don't know if I got it completely right but this is what I see and hear and I don't know the solo

E|---5---5---5---5--5--------5-5---5---5---5---5--5-5-----------|
A|-------7----------7---5-5--------7-------7--------7---7---7---|
D|-------7----------7-----7--------7-------7--------7-------9---|
G|-------6----------6-----7--------6-------6--------6-------9---|
B|-------5----------5-----7--------5-------5--------5-------9---|
e|-------5----------5-----7--------5-------5--------5-------9---|

E|---------|
A|-7--7---7|
D|--------9|
G|--------9|
B|--------9|
e|--------9|

That's basically it throughout the whole song except for when he gets to those pauses 
like when he says "two wheels is the way I ride" or "when I get there I'm gonna sing this 
song" thats play like this

E|---5---5---5------------5---5-|
A|---7-------7----7---7-------7-|
D|---7-------7--------9-------7-|
G|---6-------6--------9-------6-|
B|---5-------5--------9-------5-|
e|---5-------5--------9-------5-|

It's all the same until you get to the second set of 577655 instead of playing it 3 
times you only play it twice then jump to x79999, well that's how I think it's played, lots 
of barre chords there may be some mistakes and correct them if u can, enjoy :)

Tabbed by: Ruper aka jabbarcks
Tap to rate this tab
 
# A B C D E F G H I J K L M N O P Q R S T U V W X Y Z