Song name
# A B C D E F G H I J K L M N O P Q R S T U V W X Y Z

Wax - Limousine tab

-------------------------------------------------------------------------------
                             Limousine - Wax
-------------------------------------------------------------------------------
Tabbed by: Evan L.
E-mail: cheshirevan [AT] gmail [DOT] com

The tab for the acoustic version that he did for Knocksteady was good, but it was just a
tiny bit off.  The same chords work with the original version (on which there's
obviously no guitar) as well, but all the shapes are down three frets.  I've included it
in both keys (Db for the original and E for the acoustic).  The other dude included the strum
pattern, but it's pretty much the whole thing for the whole song, save for a few
sustained notes.  Enjoy, and big ups to Big wax for writing a dope song.

Tuning: Standard

Studio version (Db):

e|-----------------------------------------------------------------------------|
B|-----------------6-----------------------------------------------------------|
G|-10------6-------6-------5---------------------------------------------------|
D|-10------6-------4-------4---------------------------------------------------|
A|-x-------x-------6-------x---------------------------------------------------|
E|-9-------6---------------4---------------------------------------------------|
   Dbmaj7  Bbm7    Ebm9    Ab7


Acoustic version (E):

e|-----------------------------------------------------------------------------|
B|-----------------9-----------------------------------------------------------|
G|-13------9-------9-------8---------------------------------------------------|
D|-13------9-------7-------7---------------------------------------------------|
A|-x-------x-------9-------x---------------------------------------------------|
E|-12------9---------------7---------------------------------------------------|
   Emaj7   C#m7    F#m9    B7
Tap to rate this tab
# A B C D E F G H I J K L M N O P Q R S T U V W X Y Z