Song name
# A B C D E F G H I J K L M N O P Q R S T U V W X Y Z

Waxahatchee - Hollow Bedroom tab

-------------------------------------------------------------------------------
			     Hollow Bedroom - Waxahatchee
-------------------------------------------------------------------------------
Tabbed by: Alex


Capo 4

Tuning:

e|---------------------------------------------------------------------------|
B|---------------------------------------------------------------------------|
G|---------------------------------------------------------------------------|
D|-----2-------2-------2-------2-------2-------2-------2-------2-------------|  Repeat X4
A|---2---2---2---2---0---0---0---0---2---2---2---2---0---0---0---0-----------|
E|-0-------0-------0-------0-------0-------0-------0-------0-----------------|

e|---------------------------------------------------------------------------|
B|---------------------------------------------------------------------------|
G|---------------------------------------------------------------------------|
D|---------------------------------------------------------------------------|  Repeat X6
A|-2--2--2--2-2-4--4--4--4-4-7--7--7--9-9-9--11-11-11--11-11-----------------|
E|-0--0--0--0-0-0--0--0--0-0-0--0--0--0-0-0---0-0---0---0-0------------------|

e|---------------------------------------------------------------------------|
B|---------------------------------------------------------------------------|
G|---------------------------------------------------------------------------|
D|---------------------------------------------------------------------------|  Repeat X2
A|-12--11--9--7---7--7--7-7-4--4--4--4-4-2--2--2--2-2------------------------|
E|-0---0---0--0---0--0--0-0-0--0--0--0-0-0--0--0--0-0------------------------|

e|---------------------------------------------------------------------------|
B|---------------------------------------------------------------------------|
G|---------------------------------------------------------------------------|
D|---------------------------------------------------------------------------|  Repeat X3
A|-2--2--2--2-2-4--4--4--4-4-6--6--6--6--6--6--6--6-6------------------------|
E|-0--0--0--0-0-0--0--0--0-0-0--0--0--0--0--0--0--0-0------------------------|


e|---------------------------------------------------------------------------|
B|---------------------------------------------------------------------------|
G|---------------------------------------------------------------------------| Let ring to end
D|---------------------------------------------------------------------------|
A|-7-------------------------------------------------------------------------|
E|-0-------------------------------------------------------------------------|




************************************

| /   slide up
| \   slide down
| h   hammer-on
| p   pull-off
| ~   vibrato
| +   harmonic
| x   Mute note
| b   Bend
| pb  Pre-bend
| br  Bend release
| pbr Pre-bend release
| brb Bend release bend

************************************
Tap to rate this tab
 
# A B C D E F G H I J K L M N O P Q R S T U V W X Y Z