Guitaretab - guitar tabs
Song name
# A B C D E F G H I J K L M N O P Q R S T U V W X Y Z

Waxwing - Blue Days And Green Nights tab

-------------------------------------------------------------------------------
Blue Days and Green Nights - Waxwing
-------------------------------------------------------------------------------
Tabbed by: zarniwoop
Email: peterfoster@gmail.com

This is the best I can come up with so far, although itís far from ideal.  Suggestions
help would be greatly appreciated.  The second half is very rough indeed, and would have
be played by ear.  Iím not even sure if those chords are right.  Again, suggestions are 
 I just couldnít bear to leave Waxwing unrepresented in the world of online
tab.  (Chords I couldnít find names for are listed at the end)


Tuning: standard

	(x4)
e|--------------------3----3----3----3----|
B|-1----1----3---1p0---0----0----0----0---|
G|--0-----0----0--------0----0----0----0--|
D|---2---2----2---------------------------|
A|-3----3----3---3------------------------|
E|--------------------0----0----0----0----|
   Maybe tonight in the few short mo-
   -ments... we converse...
   We can speak of something better than the
   Way our bodies hurt us...

e|-1----1----1----1----3----3----3----3----0----0----0----0-----------------------|
B|--1----1----1----1----4----4----4----4----1----1----1----1-----3----------0-----|
G|---2----2----2----2--5-5----5----5----5--2-2----2----2----2----------2----0-----|
D|-3-------------------------------------------------------------0-----0----------|
A|--------------------------------------------------------------------------------|
E|--------------------------------------------------------------------------------|
  Please, please...    me... 		 ...alive	    ..still breathing

e|----------------------------------------------|
B|-1------------11111111110--3-------0----------|
G|--22222222222---------------2-2---------------|
D|-----------------------------0----------------|
A|-000000000000-00000000000--2-------3----------|
E|----------------------------------------------|
...wondering ...deathbed  ...which...living...

[ Tab from: http://www.guitaretab.com/w/waxwing/77552.html ]
	(x6)
e|--------------------3----3----3----3----|
B|-1----1----3---1p0---0----0----0----0---|
G|--0-----0----0--------0----0----0----0--|
D|---2---2----2---------------------------|
A|-3----3----3---3------------------------|
E|--------------------0----0----0----0----|
...lay... .. .. ..
   (second verse plays as did the first)

e|-1----1----1----1----3----3----3----3----0----0----0----0--------------------|
B|--1----1----1----1----4----4----4----4----1----1----1----1-----3----------0--|
G|---2----2----2----2--5-5----5----5----5--2-2----2----2----2----------2----0--|
D|-3-------------------------------------------------------------0-----0-------|
A|-----------------------------------------------------------------------------|
E|-----------------------------------------------------------------------------|
  Please, please...    me... 	       ...alive		    ..still breathing

	(x2)
e|---------------------------|
B|-1------------11111111110--|
G|--22222222222--------------|
D|---------------------------|
A|-000000000000-00000000000--|
E|---------------------------|
...listening ...speak to me
   Green days...blue nights

e|----------------------------------------------|
B|-1------------11111111110--3-------0----------|
G|--22222222222---------------2-2---------------|
D|-----------------------------0----------------|
A|-000000000000-00000000000--2-------3----------|
E|----------------------------------------------|
...nothing   ...remotely ...reminds...workhorse

	(x2)
e|--------------------3----3----3----3----|
B|-1----1----3---1p0---0----0----0----0---|
G|--0-----0----0--------0----0----0----0--|
D|---2---2----2---------------------------|
A|-3----3----3---3------------------------|
E|--------------------0----0----0----0----|
 ...days...

F	G     Am
Blame everything on me,
 Asus2          E		      F  G
I can carry the weight of everyone on my body.
F    G    Am
Give Justice for these sins,
 Asus2         E	       F   	   G     C    C1 C Em1
or at least an explanation for how I have been feeling.
   C C1 C Em1

F			G	  Am	    D1   G
Please, please, think of me. I'm Alive and still breathing
    F		G	Am         Asus2
I'm listening for you to speak to me,
    F		G	  Am
Of Blue Days and Green Nights,
Asus2	    F		      Am
or at least nothing that even remotely
D1		    G	       C   C1 C Em1
Reminds me of these Workhorse Days

Odd Chords:
      C1    Em1	   D1
e|-----0-----3-----x---|
B|-----3-----0-----3---|
G|-----0-----0-----2---|
D|-----2-----2-----0---|
A|-----3-----2-----0---|
E|-----x-----0-----2---|
Related for Blue Days And Green Nights tab