Song name
# A B C D E F G H I J K L M N O P Q R S T U V W X Y Z

Wayne Jackson - Hallelujah tab

Wayne Jackson - Hallelujah (Solo)
===========================
tabbed by: Jazzmyass
E-Mail: Jazzmyass[at]live[dot]de


Solo:

  
1:-----------------|------------------------------|
2:-----------5-8---|--------------------5-8-------|
3:-----5-7-5-----7-|-5-7-5----------5-------7-5-7-|
4:-5-7-------------|--------7---5-7---5-----------|
5:-----------------|------------------------------|
6:-----------------|------------------------------|
    
  
1:-----------------|------------------------------|
2:-----------------|-----5-8-------5-5------------|
3:-----5-------5---|-7-5-----7-5-------7-5---5----|
4:-5-7-----5-7---7-|-----------------------7------|
5:-----------------|------------------------------|
6:-----------------|------------------------------|

 
1:-----------------|---------------5~-------------|
2:-------5---------|-------5-8-5-8----------------|
3:-----5----7-5-7--|---5-7------------------------|
4:-5-7-------------|-7----------------------------|
5:-----------------|------------------------------|
6:-----------------|------------------------------|
Tap to rate this tab
 
# A B C D E F G H I J K L M N O P Q R S T U V W X Y Z