Song name
# A B C D E F G H I J K L M N O P Q R S T U V W X Y Z

Wayward Daughter - Bones tab

Capo 4

Intro:

E---------0-----------------------------------------------------|
B----3/5-----5/3----0-------------------------------------------|
G------------------------0--------------------------------------|
D----------------------------0h2----2---2----0------------------|
A------------------------------------------------0--------------|
E----------------------------------------------------0----------|


Verses:

-----------------------------------------------------------------|
-----------------------------------------------------------------|
-----------------------------------------------------------------|
----2-2-2-2-2-2-2-2-2------2-2-2-2-2-2-2-2-2---------------------|
----2-2-2-2-2-2-2-2-2------2-2-2-2-2-2-2-2-2---------------------|
----0-0-0-0-0-0-0-0-0 3-3-2-0-0-0-0-0-0-0-0-0-3-3-2--------------|

     PM - - - - - - - - - -             PM - - - - - - - - - -


End of verse:

----7------8---9-------------------------------------------------|
----7------8---9-------------------------------------------------|
----7------8---9-------------------------------------------------|
----9------10--11---let ring-------------------------------------|
----9------10--11------------------------------------------------|
----7-x5---8---9-------------------------------------------------|

Improvise around Em pentatonic scale for licks in verses

E ---3---0-------------------------------------------------------|
B ----------3---0------------------------------------------------|
G -----------------2---0-----------------------------------------|
D --------------------------2---0--------------------------------|
A ----------------------------------2---0------------------------|
E -------------------------------------------3----0--------------|

Or

E ---19---16-------------------------------------------------------------|
B ---------------19----16------------------------------------------------|
G ----------------------------18---16------------------------------------|
D --------------------------------------18----16-------------------------|
A -------------------------------------------------18----16--------------|
E -------------------------------------------------------------19---16---|
Tap to rate this tab
# A B C D E F G H I J K L M N O P Q R S T U V W X Y Z