Song name
# A B C D E F G H I J K L M N O P Q R S T U V W X Y Z

Wd40 - Change tab

 
artist:wd40 
band members:jackson(lead guitar),hamish(back up guitar),jaim(drums) 
album:change 
song:change 


INTRO 
e------------------------------------------------------------------------ 
B------------------------------------------------------------------------- 
G------------------5----------------5------------------------------------ 
X3 
D---------------5-----5---------5------------------6--------------5------ 
A------------3----------------3-----------------6-------------5--------- 
E--------------------------------------------4---------------3------------ 



DISTORTION 
e--------------------------------------------------------------------------- 
--- 
B--------------------------------------------------------------------------- 
--- 
G------------5-------5------------------------------------------------------ 
--       X3 
D-------------5-------5---------------6-----6------5---------6-----6------5 
A------------3------3-----------------6----6------5---------6-----6-------5 
E---------------------------------------4---4-------3--------4----4--------3 
-- 


If you have coments or questions e-mail us at talk2wd40@yahoo.com 
Tap to rate this tab
 
# A B C D E F G H I J K L M N O P Q R S T U V W X Y Z