Song name
# A B C D E F G H I J K L M N O P Q R S T U V W X Y Z

Wd40 - Crying tab

Author/Artist: wd40 
Title: crying 
Album: crying 
Transcribed by: jackson efford 
e-mail:talk2wd40@yahoo.com  
 this is my very fist tab and i think its all correct 
  

                                                                               
  
-|--------------------------------------------------------------------------- 
-|--------------------------------------------------------------------------- 
-|------------5----------------5--------------------------------------------- 
-|--------5-------5-------5--------------------6-------------5---------5----- x3 
-|-----3--------------3--------------------6-------------5---------3--------- 
-|-------------------------------------4-------------3----------------------- 
                                                                               
  
----------------------------------------------------------------------------- 
----------------------------------------------------------------------------- 
--5----------------5-----------------------------------5-5------------------- 
-----5--------5----------------------------------------5-5----6--6---5------- 
----------3--------------------6---6---------5---5-----3-3----6--6---5------- 
---------------------------4-------------3--------------------4--4---3------- 
 hit the distorsion now                                                        
  
------------------------------------------------------------------------------ 
------------------------------------------------------------------------------ 
-5-5-------------------------------------------------------------------------- 
-5-5--6-6---5----6-6---5-------------------------------------------------x2------3-3--6-6---5----6-6---5------------------------------------------------------ 
------4-4---3----4-4---3------------------------------------------------------ 
                                                                               
  
verse 1 
  

I saw you crying  
  
was it something I said  
  
cause I love you for good 
  

chorus 
  
I will change my ways for you baby x2 
  
enjoy it 
thats all i got so far 
  
  
  
wd40 is a great new band thats making it big in new zealand.  
  
the band are already making arangemnts for concerts already.  
  
band membours are jackson(lead guitar), hamish(rythme guitar),jaim(drums) 
Tap to rate this tab
# A B C D E F G H I J K L M N O P Q R S T U V W X Y Z