Song name
# A B C D E F G H I J K L M N O P Q R S T U V W X Y Z

We Are Augustines - Chapel Song tab

From the remains of the now defunct Pela, Billy McCarthy and Eric Sanderson bring us the 
amazing We Are Augustines.
http://www.weareaugustines.com/ is their website.

This is a great song and very easy to play.
------------> CAPO 2 <-------------
Play with Capo 2, but if you don't want to and would rather play sans the capo, 
transpose everything up 2 frets.
 Verse "There goes my girl..."
E|-------------------------------------------------------------------|
B|-------------------------------------------------------------------|
G|-------------------------------------------------------------------|
D|-----------------------------------------2-------------------------|
A|--2--2--2--2--3--3--3--3--2--2--2--2---3----3--3-------------------|
E|-3--3--3--3--5--5--5--5--0--0--0--0--3--3--3--3--------------------|

Verse (part2)"And I shake, shake, shake like...."
E|-------------------------------------------------------------------|
B|-------------------------------------------------------------------|
G|-------------------------------------------------------------------|
D|----0---------0----------2----------2------------------------------|
A|--2---2--2--3----3--3--2----2--2--3----3--3------------------------|
E|-3-3-3--3--5-5--5--5--0-0--0--0--3-3--3--3-------------------------|

Chorus (gt 1)
E|-------------------------------------------------------------------|
B|-------------------------------------------------------------------|
G|-------------------------------------------------------------------|
D|-----------------------------22222222------------------------------|
A|-22222222-33333333-22222222--33333333------------------------------|
E|-33333333-55555555-00000000--33333333------------------------------|

Extra gt2 part (sixteenth notes)
E|---------------------------------------------------------------------------|
B|---------------------------------------------------------------------------|
G|---------------------------------------------------------------------------|
D|---------------------------------------------------------------------------|
A|---------------------------------------------------------------------------|
E|-3333333333333333--5555555555555555--7777777777777777--8888888888888888----|

 Verse "There goes my girl..."
E|-------------------------------------------------------------------|
B|-------------------------------------------------------------------|
G|-------------------------------------------------------------------|
D|-----------------------------------------2-------------------------|
A|--2--2--2--2--3--3--3--3--2--2--2--2---3----3--3-------------------|
E|-3--3--3--3--5--5--5--5--0--0--0--0--3--3--3--3--------------------|

Verse (part2)"And I shake, shake, shake like...."
E|-------------------------------------------------------------------|
B|-------------------------------------------------------------------|
G|----0---------0----------0----------0------------------------------|
D|----0---------0----------2----------2------------------------------|
A|--2---2--2--3----3--3--2----2--2--3----3--3------------------------|
E|-3-3-3--3--5-5--5--5--0-0--0--0--3-3--3--3-------------------------|


Chorus (gt 1)
E|-------------------------------------------------------------------|
B|-------------------------------------------------------------------|
G|-------------------------------------------------------------------|
D|-----------------------------22222222------------------------------|
A|-22222222-33333333-22222222--33333333------------------------------|
E|-33333333-55555555-00000000--33333333------------------------------|

Extra gt2 part (sixteenth notes)
E|---------------------------------------------------------------------------|
B|---------------------------------------------------------------------------|
G|---------------------------------------------------------------------------|
D|---------------------------------------------------------------------------|
A|---------------------------------------------------------------------------|
E|-3333333333333333--5555555555555555--7777777777777777--8888888888888888----|


Thats it. Enjoy!!
Tap to rate this tab
 
# A B C D E F G H I J K L M N O P Q R S T U V W X Y Z