Song name
# A B C D E F G H I J K L M N O P Q R S T U V W X Y Z

We Are Scientists - Ghouls tab

Help us improve GuitareTab! Take a short survey!
Song: Ghouls
Artist: We Are Scientists
Album: Brain Thrust Mastery
Release: 2008
Tabbed by: Andrew Carr


Not much to this song really, pretty much all synth, but the guitar thats there is nice 
to play :)

Intro Bendy Guitar (Bend the strings obviously, b=bend, r=release)
e|-------------------------------------------------------------------------|
B|-------------------------------------------------------------------------|
G|--12b14-12b14r12----5b7r5----------12b14-12b14r12----5b6r5---------------|
D|-------------------------------------------------------------------------|
A|-------------------------------------------------------------------------|
E|-------------------------------------------------------------------------|


Chorus (Sounds like an Editors song, Tremelo pick all notes)
e|-------------------------------------|
B|-------------------------------------|
G|---14----12------14----12/17b18------|
D|------15----14------15---------------|
A|-------------------------------------|
E|-------------------------------------|


Rhythm Riff, Strum it or let ring the chords, it fits with the synth after the intro 
and gives you something to play.
e|--------------------------|
B|--------------------------|
G|--3---------7----6--------|
D|--3----3----7----7--------|
A|--1----3----5----7--------|
E|-------1---------5--------|

Thanx guys.

LYRICS

We all recognise that Im the problem here
We all recognise that Im the problem here

Its impossible to know or so it seems
What Im supposed to do with you on anything
I know that playing this time is going to fall on me
Cause we all recognise that Im the problem here

Cant help but feel attacked, whats that supposed to mean
I know I wont relax or act like its no big deal
This happens all the time; its kind of our routine
But we all recognise that Im the problem here

We all recognise that Im the problem here x 4
Related for Ghouls tab