Guitaretab - guitar tabs
Song name
# A B C D E F G H I J K L M N O P Q R S T U V W X Y Z

We Are Scientists - Impatience tab

hey please rate/comment and please dont tell me how some of the lyrics are wrong cause i 
know, i just copied them from some website so you have an idea of how the tabs go with 
words.


intro/verse:
-----------------------------------------------|
-----------------------------------------------|
-44444444/66666666\44444444/66666666-----------|
-xxxxxxxx/xxxxxxxx\xxxxxxxx/xxxxxxxx-----------| x5
-22222222/44444444\22222222/44444444-----------|
-----------------------------------------------|

I'm not calming down.
What's this all about?
All I know is I don't need this tone you're taking.

Forget what I said.
For every promise kept
there's a thousand I don't even know I'm making.

chorus:
---------------------------------------------------|
---------------------------------------------------|
---11-11-11-11-11-11-11-11-9-9-9-9-9-9-9-9--4------|
---x--x--x--x--x--x--x--x--x-x-x-x-x-x-x-x--x-x16--|
---9--9--9--9--9--9--9--9--7-7-7-7-7-7-7-7--2------|
---------------------------------------------------|

--------------------------------------------|
--------------------------------------------|
---11-11-11-11-11-11-11-11-9-9-9-9-9-9-9-9--|
---x--x--x--x--x--x--x--x--x-x-x-x-x-x-x-x--|
---9--9--9--9--9--9--9--9--7-7-7-7-7-7-7-7--|
--------------------------------------------|

So it's time to stop being so impatient.
It's time to stop being so impatient.

verse 2:
----------------------------------------------|
----------------------------------------------|
---44444444/66666666\44444444/66666666--------|
---xxxxxxxx/xxxxxxxx\xxxxxxxx/xxxxxxxx--------| x5
---22222222/44444444\22222222/44444444--------|
----------------------------------------------|

Your philosophy
is totally lost on me.
With a promise I don't mean to have you waiting.

That attitude
won't do any good
when the problem's only as real, as you've made it.

chorus:
---------------------------------------------------|
---------------------------------------------------|
---11-11-11-11-11-11-11-11-9-9-9-9-9-9-9-9--4------|
---x--x--x--x--x--x--x--x--x-x-x-x-x-x-x-x--x-x16--| x2
---9--9--9--9--9--9--9--9--7-7-7-7-7-7-7-7--2------|
---------------------------------------------------|
[ Tab from: http://www.guitaretab.com/w/we-are-scientists/115378.html ]
So it's time to stop being so impatient.
It's time to stop being so impatient.


bridge:
----------5--------4-------5-------|
----------5--x16---5--x8---5--x8---|
-----------------------------------| x2
-----------------------------------|
-----------------------------------|
-----------------------------------|

---------4-------5-----------------|
---------5--x8---5--x16------------|
-----------------------------------|
-----------------------------------|
-----------------------------------|
-----------------------------------|

Why not try to take it down?
You're gonna have to wait this out
or tell me now
where the fuckin' fire is.

verse 3:
----------------------------------------------|
----------------------------------------------|
---44444444/66666666\44444444/66666666--------|
---xxxxxxxx/xxxxxxxx\xxxxxxxx/xxxxxxxx--------| x6
---22222222/44444444\22222222/44444444--------|
----------------------------------------------|

Your philosophy
is totally lost on me.
With a promise I don't mean to have you waiting.

That attitude
won't do any good
when the problem's only as you, as you've made it.

chorus:
---------------------------------------------------|
---------------------------------------------------|
---11-11-11-11-11-11-11-11-9-9-9-9-9-9-9-9--4------|
---x--x--x--x--x--x--x--x--x-x-x-x-x-x-x-x--x-x16--|
---9--9--9--9--9--9--9--9--7-7-7-7-7-7-7-7--2------|
---------------------------------------------------|

--------------------------------------------|
--------------------------------------------|
---11-11-11-11-11-11-11-11-9-9-9-9-9-9-9-9--|
---x--x--x--x--x--x--x--x--x-x-x-x-x-x-x-x--|
---9--9--9--9--9--9--9--9--7-7-7-7-7-7-7-7--|
--------------------------------------------|
So it's time to stop being so impatient
Well it's time to stop being so impatient

ending
----------------------------------------------|
----------------------------------------------|
---44444444/66666666\44444444/66666666--------|
---xxxxxxxx/xxxxxxxx\xxxxxxxx/xxxxxxxx--------| x2
---22222222/44444444\22222222/44444444--------|
----------------------------------------------|

You're so impatient
You're so impatient
You're so impatient

last chord:
--------------|
--------------|
---44444444/--|
---xxxxxxxx/--
---22222222/--|
--------------|
Related for Impatience tab
Advertisement will be closed in 10 seconds