Song name
# A B C D E F G H I J K L M N O P Q R S T U V W X Y Z

We Are Scientists - This Means War tab

-------------------------------------------------------------------------------
			     This Means War - We Are Scientists
-------------------------------------------------------------------------------
Tabbed by: schmojay
Email:

Tuning: Standard

use a delay pedal. play around with it to get to the right delay time. listen to the 
for the timing. it is spaced out for ease of sight.

intro and 1st verse:
e|---------------------------------------------------------------------------|
B|---------------------------------------------------------------------------|
G|---------------------------------------------------------------------------|
D|---------------------------------------------------------------------------|
A|------------77777-------77777--4-44--77777--4-44--77777--------------------|
E|------0-00--------0-00-----------------------------------------------------|

middle part "im not stupid":

e|---------------------------------------------------------------------------|
B|---------------------------------------------------------------------------|
G|---------------------------------------------------------------------------|
D|------6666-7777-6666-7777-etc----------------------------------------------|
A|---------------------------------------------------------------------------|
E|---------------------------------------------------------------------------|

2nd verse:
e|---------------------------------------------------------------------------|
B|---------------------------------------------------------------------------|
G|---------------------------------------------------------------------------|
D|---------------------------------------------------------------------------|
A|------------77777------77777--4-44--77777--4-44--77676---------------------|
E|-------0-00-------0-00-----------------------------------------------------|

then middle part again before the chorus

1st chorus:
e|---------------------------------------------------------------------------|
B|-------999------999-------etc----------------------------------------------|
G|----------99988----99988---------------------------------------------------|
D|---------------------------------------------------------------------------|
A|---------------------------------------------------------------------------|
E|---------------------------------------------------------------------------|

then keith does some pick scraping and playing around with distortion and
feedback. at the end of this he runs his finger up on the low 'e' string

3rd verse:
e|---------------------------------------------------------------------------|
B|---------------------------------------------------------------------------|
G|---------------------------------------------------------------------------|
D|------------------------------------------------5555-----------------------|
A|-----------77777------77777---4-44-77777--4-44-----------------------------|
E|------0-00-------0-00------------------------------------------------------|

then its the "im not stupid" part again to the 2nd chorus.

then its the "im not stupid" part again but this time with another guitar part:

e|-----12x4--14x4--16x4--11x4-etc--end-with-17^------------------------------|
B|---------------------------------------------------------------------------|
G|---------------------------------------------------------------------------|
D|---------------------------------------------------------------------------|
A|---------------------------------------------------------------------------|
E|---------------------------------------------------------------------------|

then its the 3rd chorus. end the song by hitting the 'A'string on the 7th fret.

| /  slide up
| \  slide down
| h  hammer-on
| p  pull-off
| ~  vibrato
| +  harmonic
| x  Mute note
===============================================================================
Tap to rate this tab
# A B C D E F G H I J K L M N O P Q R S T U V W X Y Z