Song name
# A B C D E F G H I J K L M N O P Q R S T U V W X Y Z

We Are Scientists - After Hours tab

Help us improve GuitareTab! Take a short survey!
guitar one:
does this almost all the way thru apart from the middle 8

e|-0-0-0--0-0--0-0-0-0-0-0-0-0-0-0-0------------------|
B|-0-0-10-0-12-0-0-0-9-0-0-7-0-0-0-0------------------|
G|----------------------------------------------------|
D|----------------------------------------------------|
A|----------------------------------------------------|
E|----------------------------------------------------|


guitar two

Intro and Verse

e|--------------------------------------------------------------------|
B|--------------------------------------------------------------------|
G|-9-9-9-9-9-9-9-9-9-9-9-9-9-9-9-9-9-9-9-9-9-9-9-9-9-9-9-9-9-9-9------|
D|-9-9-9-9-9-9-9-9-9-9-9-9-9-9-9-9-9-9-9-9-9-9-9-9-9-9-9-9-9-9-9------|
A|-7-7-7-7-7-7-7-7-7-7-7-0-0-0-0-x-x-x-x-x-x-x-x-x-x-x-x-x-x-x-x------|
E|-------------------------------7-7-7-7-7-7-7-7-9-9-9-9-9-9-9-9------|


chorus:

e|-----------------------------------------------------|
B|-----------------------------------------------------|
G|-9-9-9-9-9-9-9-9-9-9-9-9-9-9-9-9-9-9-9-9-9-9-9-9-9-9-|
D|-9-9-9-9-9-9-9-9-9-9-9-9-9-9-9-9-9-9-9-9-9-9-9-9-9-9-|
A|-x-x-x-x-x-x-x-x-x-x-x-x-x-x-x-x-7-7-7-7-7-0-0-0-0-0-|
E|-9-9-9-9-9-9-9-9-7-7-7-7-7-7-7-7---------------------|

   say                     that youll stay
e|-----------------------------------------------------|
B|-----------------------------------------------------|
G|-9-9-9-9-9-9-9-9-9-9-9-9-9-9-9-9-9-9-9-9-9-9-9-------|
D|-9-9-9-9-9-9-9-9-9-9-9-9-9-9-9-9-9-9-9-9-9-9-9-------|
A|-0-0-0-0-x-x-x-x-x-x-x-x-0-0-0-0-7-7-7-7-7-7-7-------|
E|---------7-7-7-7-9-9-9-9-----------------------------|

middle 8:
A
Were all right where were supposed to be,
F#
Were all right where were supposed to be,
A                           F#
Were all right where were supposed to be,
(Time means nothing)
A                           F#
Were all right where were supposed to be,
(Time means nothing)

these are bare chords =]

then back to the verse
Related for After Hours tab