We Are Scientists - Hoppipolla tab

*-*-*-*-*-*-*-*-*-*-*-*-*-*-*-*-*-*-*-*-*-*-*-*-*-*-*-*-*-*-*-*-*-*-*-*-*-*-*-*-*-*-*
e|--------------------------|-------------------------------------------------------|
B|-----------------------14-|----------14----15-14----------------14----15-14-------|
G|-------14-----------14----|-------14----14-------14-----------14---14-------14----|
D|-11-14----14--12-14-------|-12-14-------------------14--12-14------------------14-|
A|--------------------------|-------------------------------------------------------|
E|--------------------------|-------------------------------------------------------|
		                                                *-(x8)-*
e|--------------------------|-----------------------------------------|
B|----------14-----------12-|----------14----15-14-----------------14-|
G|-------14-----------14----|-------14----14-------14-----------14----|
D|-12-14-----------14-------|----14-------------------14--12-14-------|
A|--------------14----------|-14--------------------------------------|
E|--------------------------|-----------------------------------------|
*-*-*-*-*-*-*-*-*-*-*-*-*-*-*-*-*-*-*-*-*-*-*-*-*-*-*-*-*-*-*-*-*-*-*-*-*-*-*-*-*-*-*

e|--------------|
B|-------12-----|
G|--------------|
D|-11-14----14--| (x30)
A|--------------|
E|--------------|

e|----------------------------------------------|
B|-15\14--14\12--12\10-10-12-12/14--10--10--/15-|
G|----------------------------------------------|
D|----------------------------------------------| (x2)
A|----------------------------------------------|
E|----------------------------------------------|

e|--------------|
B|-------12-----|
G|--------------|
D|-11-14----14--| (x6)
A|--------------|
E|--------------|

e|----------------------------------------------|
B|-15\14--14\12--12\10-10-12-12/14--10--10--/15-|
G|----------------------------------------------|
D|----------------------------------------------| (x4)
A|----------------------------------------------|
E|----------------------------------------------|

*-*-*-*-*-*-*-*-*-*-*-*-*-*-*-*-*-*-*-*-*-*-*-*-*-*-*
e|--------------------------|----------------------|
B|-12--12------12------12---|-10------10------10---|
G|--------9-------9-------9-|----9-------9-------9-|
D|----------11------11------|------11------11------|
A|--------------------------|----------------------|
E|--------------------------|----------------------|
	                                           *-(x2)-*
e|---------------------|---------------------|
B|-9------10------12---|-9------10------12---|
G|---9-------9-------9-|---9-------9-------9-|
D|-----11------11------|-----11------11------|
A|---------------------|---------------------|
E|---------------------|---------------------|
*-*-*-*-*-*-*-*-*-*-*-*-*-*-*-*-*-*-*-*-*-*-*-*-*-*-*
Tap to rate this tab
 
# A B C D E F G H I J K L M N O P Q R S T U V W X Y Z