Song name
# A B C D E F G H I J K L M N O P Q R S T U V W X Y Z

We Are Scientists - Inaction tab

-------------------------------------------------------------------------------
			     Inaction - We are Scientists
-------------------------------------------------------------------------------
Tabbed by: gastelum
Email: enrike_g22@hotmailcom

Tuning: Standard

Starts at 1:41:

Guitar 1 Repeats this:
e|---------------------------------------------------------------------|
B|-10-8------------10-8--------------10-8------------10-8--------------|
G|------9-8-7-----------9-8-7-------------9-8-7-----------9-8-7--------|
D|------------10-7------------10-7~~------------10-7------------10-7~~-|
A|---------------------------------------------------------------------|
E|---------------------------------------------------------------------|

Then theres an outro at 2:16 which is quite similar but:

Guitar 1 Repeats this:
e|---------------------------------------------------------------------|
B|-10-8------------10-8--------------10-8------------10-8--------------|
G|------9-8-7-----------9-8-7-------------9-8-7-----------9-8-7--------|
D|------------10-7------------10-7~~------------10-7------------10-7~~-|
A|---------------------------------------------------------------------|
E|---------------------------------------------------------------------|

Guitar 2:
e|-------------------------------------------------------------|
B|-5-5-5-5-5-5-5-5-5-5-5-5-5-5-5-5-5-5-5-5-5-5-5-5-5-5-5-5-5-5-|
G|-5-5-5-5-5-5-5-5-5-5-5-5-7b7b7b7b5-5-5-5-5-5-5-7b7-7-5-7b7b5-|
D|-------------------------------------------------------------|
A|-------------------------------------------------------------|
E|-------------------------------------------------------------|


Note: When guitar plays continually bends they go higher and higher not 
high,down,high,down if you get me.

*****************
b = bend
~ = Hold Note
/ = Slide up
\ = Slide down
h = Hammer on
*****************

Tap to rate this tab
 
# A B C D E F G H I J K L M N O P Q R S T U V W X Y Z