Guitaretab - guitar tabs
Song name
# A B C D E F G H I J K L M N O P Q R S T U V W X Y Z

We Are Scientists - Callbacks tab

Callbacks  We are scientists

Intro:
E|---------------------------------------|
B|---------------------------------------|
G|-88888888-99999999-88888888-99999999---|
D|-77777777-77777777-77777777-77777777---|
A|-00000000-00000000-00000000-00000000---|
E|---------------------------------------| 2x

Verse:
E|--------------------|    |----------------------|
B|--------------------|    |----------------------|
G|--------------------| or |----5----------5------|
D|--------------------|    |-7--5--5--7--7-5--5---|
A|----3---------3-----|    |-7--3--5--7--7-3--5---|
E|-5-----3--5--5---3--| 4x |-5-----3--5--5----3---| 4x
[ Tab from: http://www.guitaretab.com/w/we-are-scientists/69448.html ]
Chorus:
E|-3~------3~----------------1~--4~---|
B|-3~------3~----------------1~--4~---|
G|-4~--5~--4~-5~---7777-9999-2~--5~---|
D|-5~--5~--5~-5~---xxxx-xxxx-3~--6~---|
A|-5~--3~--5~-3~---5555-7777-3~--6~---|
E|-3~------3~----------------1~--4~---|

2nd Verse 
Chorus 2nd time

Bridge
E|----------------------------------|
B|----------------------------------|
G|-88--88--99--99--88--88--99--99---|
D|-77--77--77--77--77--77--77--77---|
A|-00--00--00--00--00--00--00--00---|
E|----------------------------------|

E|------|
B|------|
G|-2\---|
D|-1\---|
A|-0\---|
E|------| (keep strumming notes as you slide along)

Verse
Chorus (with no guitar)

Ending

E|-44444444-33333333-22222222-11111111---|
B|-44444444-33333333-22222222-11111111---|
G|-55555555-44444444-33333333-22222222---|
D|-66666666-55555555-44444444-33333333---|
A|-66666666-55555555-44444444-33333333---|
E|-44444444-33333333-22222222-11111111---| x3
Related for Callbacks tab