Song name
# A B C D E F G H I J K L M N O P Q R S T U V W X Y Z

We Are Scientists - Hoppipola Performed On Live Lounge tab

-------------------------------------------------------------------------------
			     Hoppipola - We Are Scientists
-----------------------------------------------------------------------------
Tabbed by: Mark Stone
Email: stoney60@hotmail.com

We are scientists performed sigur ros's Hoppipola on 4th May on the live lounge.  This 
is not exactly the same as that performance as I only heard it the once, but it draws 
from the we are scientists performance and the sigur ros track.

Intro

e|-------2|
B|-----3--|
G|---2----|
D|-0------|
A|--------|
E|--------| x9

then

e|-------2-----3-2-------2---3-2-----------2---2-----|
B|-----3-----3---------3---3-----3-------3---3---3---|
G|---2---------------2-------------2---2-----------2-|
D|-0-------0-------0-----------------0---------------|
A|---------------------------------------------------|
E|---------------------------------------------------| x 5

Verse

e|-------2-----3-2-------2---3-2-----------2---2-----|
B|-----3-----3---------3---3-----3-------3---3---3---|
G|---2---------------2-------------2---2-----------2-|
D|-0-------0-------0-----------------0---------------|
A|---------------------------------------------------|
E|---------------------------------------------------| X5

then

e|-------3-3-2---------------------------------------|
B|-3-3-3-------2-2-2-2-2-3---------------------------|
G|---------------------------------------------------|
D|---------------------------------------------------|
A|---------------------------------------------------|
E|---------------------------------------------------|

Its the first song ever ever tabbed out so its probably not brilliant but its really 
and sounds ok to me.  You might want to try it at a higher pitch though.  Let me know what 
think and please add/modify where appropriate.

Enjoy
Tap to rate this tab
# A B C D E F G H I J K L M N O P Q R S T U V W X Y Z