Song name
# A B C D E F G H I J K L M N O P Q R S T U V W X Y Z

We Are Scientists - Ram It Home tab

-------------------------------------------------------------------------------
			     Ram It Home - We Are Scientists
-------------------------------------------------------------------------------

Tabbed by: Callum Urquhart

Tuning: Standard

A great song from an unbelievably great band.  This is my first tab, so it is pretty 
but sounds right.  Sorry I couldn't work out the tab for the solo or outro!  Apart from 
I think its all here.


Intro/Chorus

e|----------------------------------------------------------|
B|----------------------------------------------------------|
G|-------------------------------------4b-2-----2-----------|
D|-2--4-4--4---2--4-4--4---2--4-4--4--------4-2---4-2-------|
A|-2--4-4--4---2--4-4--4---2--4-4--4------------------------|
E|-0--2-2--2---0--2-2--2---0--2-2--2------------------------|

Verse

e|------------------------------|
B|------------------------------|
G|---------------2--4-4--4------|
D|-4--(4)      --2--4-4--4------|
A|-4--(4) X 15 --0--2-2--2------|
E|-2--(2)      -----------------|

Pre-Chorus

e|------------------------------|
B|------------------------------|
G|-7      ---9      ------------|
D|-7 X 15 ---9 X 15 ------------|
A|-5      ---7      ------------|
E|------------------------------|

Bridge

e|----------------------------------------------------------|
B|----------------------------------------------------------|
G|-----------------------------4----------------------------|
D|-2-2-4---2-2-4---2-2-4---2-2-4----------------------------|
A|-2-2-4---2-2-4---2-2-4---2-2-2----------------------------|
E|-0-0-2---0-0-2---0-0-2---0-0------------------------------|

End

e|------------------------------------------------------------------------|
B|------------------------------------------------------------------------|
G|-------------------------------------2--4-4--4---- Then a cool but -----|
D|-2--4-4--4---2--4-4--4---2--4-4--4---2--4-4--4---- un-work-outable -----|
A|-2--4-4--4---2--4-4--4---2--4-4--4---0--2-2--2-----     solo!    -------|
E|-0--2-2--2---0--2-2--2---0--2-2--2--------------------------------------|


--- Order ---

Intro/Chorus  X2
Verse  X2
Pre-Chorus  X1
Intro/Chorus  X2
Verse  X2
Pre-Chorus  X1
Intro/Chorus  X2
Solo
Bridge  X4
Pre-Chorus  X1
Intro/Chorus  X3
End
Tap to rate this tab
# A B C D E F G H I J K L M N O P Q R S T U V W X Y Z