Song name
# A B C D E F G H I J K L M N O P Q R S T U V W X Y Z

We Are Scientists - Super Anytime Double-x Mystery tab

-------------------------------------------------------------------------------
The Super Anytime Double-X Mystery - We Are Scientists
-------------------------------------------------------------------------------
Tabbed by: Mmm_Pie
Email:MmmPie06@hotmail.co.uk
Tuning: Standard

Intro
e|---------------------------------------------------------------------------|
B|---------------------------------------------------------------------------|
G|---------------------------------------------------------------------------|

D|--77-7-55-5-66-6-88-8\-----------------------------------------------------|
A|--55-5-33-3-44-4-66-6\-----------------------------------------------------|
E|---------------------------------------------------------------------------|
    PM   PM   PM   PM

Intro pt.2
e|---------------------------------------------------------------------------|
B|---------------------------------------------------------------------------|
G|--5555-7777--------------------------------------------------------------|
D|--5555-7777--------------------------------------------------------------|
A|--3333-5555--------------------------------------------------------------|
E|---------------------------------------------------------------------------|

Chorus
e|---------------------------------------------------------------------------|
B|---------------------------------------------------------------------------|
G|--5555-7777----------------------------------------------------------------|
D|--5555-7777-55-77-99-------------------------------------------------------|
A|--3333-5555-55-77-99-------------------------------------------------------|
E|------------33-55-77-------------------------------------------------------|
                    Repeat last chord 3rd time

Interlude
e|---------------------------------------------------------------------------|
B|---------------------------------------------------------------------------|
G|---------------------------------------------------------------------------|
D|---99-xxxx-77-xxxx-55-xxxx-55----------------------------------------------|
A|---77-xxxx-55-xxxx-33-xxxx-33----------------------------------------------|
E|---------------------------------------------------------------------------|

Interlude pt.2
e|---------------------------------------------------------------------------|
B|---------------------------------------------------------------------------|
G|--7x7x-9x9x-5x5x5x5x-------------------------------------------------------|
D|--5x5x-7x7x-3x3x3x3x-------------------------------------------------------|
A|---------------------------------------------------------------------------|
E|---------------------------------------------------------------------------|

Interlude pt.3
e|---------------------------------------------------------------------------|
B|---------------------------------------------------------------------------|
G|------7--------------------------------------------------------------------|
D|--7-9---9------------------------------------------------------------------|
A|---------------------------------------------------------------------------|
E|---------------------------------------------------------------------------|

That's basically the song.


| /  slide up
| \  slide down
| h  hammer-on
| p  pull-off
| ~  vibrato
| +  harmonic
| x  Mute note
| PM Palm mute
===============================================================================
Tap to rate this tab
# A B C D E F G H I J K L M N O P Q R S T U V W X Y Z