Song name
# A B C D E F G H I J K L M N O P Q R S T U V W X Y Z

We Are The City - Happy New Year tab

“Happy New Year” We Are The City

this is my first tab I've made so it may not be good. 
but its pretty close. i tabbed it by watching the music video. 
for most parts just listen to the song and learn the 
strumming its very easy and fun to play. when i have 
time ill make a better one- Tyler

Standard Tuning: E-A-D-G-B-e
e|-----------------------------------------------------------------------|
B|-----------------------------------------------------------------------|
G|-----------------------------------------------------------------------|
D|-------14--------14\----------14--------14\-------9------9\-------2----|
A|----11--------11\----------11--------11\--------6------6\-------2------|
E|-12--------12\----------12--------12\---------7------7\-------0--------|x2

e|------------------| just listen to song through this part to get it right 
B|------------------|when to switch on what you’re playing and stuff
G|--13--6--8--6--13-|
D|--14--7--9--7--14-|
A|--11--4--6--4--11-|
E|--12--5--7--5--12-|x2

e|--------|
B|--------|
G|---13---|
D|---14---|
A|---11---|a lot during the rocking out part once again just listen to the
E|---12---|song. Then just play everything over again.

www.thebatteredstarfield.tumblr.com

http://www.wearethecity.ca/
Tap to rate this tab
 
# A B C D E F G H I J K L M N O P Q R S T U V W X Y Z