Song name
# A B C D E F G H I J K L M N O P Q R S T U V W X Y Z

We Are The City - Dark Warm Air tab

Tabbed by Nick

We Are The City - Dark/Warm Air

intro/verse riff

E|----------------------------------------------------------------------|
B|----------------------------------------------------------------------|
G|--------------12--------------12------------------12--------------12--|
D|----------10--------------10--------------10--------------10----------|
A|------13--------------13----------------------13--------------13------|
E|--11--------------11--------------11--11--------------11--------------|

chorus chords

E|------------------------------------------------------------------------|
B|------------------------------------------------------------------------|
G|--12--12--12--7--12--12--12--13--7--12--12--12--7--5--12--12--12--7--5--|
D|--13--13--13--8--13--13--13--13--8--13--13--13--8--6--13--13--13--8--6--|
A|--13--13--13--8--13--13--13--11--8--13--13--13--8--6--13--13--13--8--6--|
E|--11--11--11--6--11--11--11------6--11--11--11--6--4--11--11--11--6--4--|

In the cold snow
Dark air, frozen road
I drink, my mind is full
They're high in the house

Within the bright door
Warm air, bathroom floor
I'm beat, my mind behold
We're high in the house

Comments and corrections welcome at cookiecala_03@hotmail.com.
Tap to rate this tab
 
# A B C D E F G H I J K L M N O P Q R S T U V W X Y Z