Song name
# A B C D E F G H I J K L M N O P Q R S T U V W X Y Z

We Are The End - A Breed Unkown tab

pretty cheap tab, but its mostly for someone else to build on cuz im
pretty sure its wrong, but close

B |
Gb|
D |
A |
E |
A |

so all i know is that the sweep in the beginning is an a minor
sweep

and they are in drop a

|---------13-17-13----17-13-----|
|-------15--------15-------15---|
|-----14------------14-------14-|
|---15--------------------------|
|-17----------------------------|
|-------------------------------|

something along the lines of that, build off of it.

the chugs sound a little wierd, cuz the sound gets lower
|--------------|
|--------------|
|--------------|
|--------------|
|00000000-000-000
|00000000-000-000


"kill yourself"
0:50
|----------------|-------------|
|----------------|-------------|
|----------------|-------------|
|----------------|-------------|
|----------------|-------------|
|0-0-0-0--0-0-0-0|-0--0--0--0--|


twice
1:08
|----------------|
|----------------|
|----------------|
|----------------|
|4-2-1-5-4-2-4-2-|
|-0-0-0-0-0-0-0--|

1:12
|----------------------------------------------------------|
|----------------------------------------------------------|
|----------------------------------------------------------|
|----------------------------------------------------------|
|---444555777888777555444---------555777888101010888777555-|
|555---------------------555444555-------------------------|

1:16
|----------------|
|----------------|
|----------------|
|----------------|
|5-4-2-7-5-4-5-4-|
|-0-0-0-0-0-0-0--|

1:20
|-------------------------------------------------------------------|
|-------------------------------------------------------------------|
|-------------------------------------------------------------------|
|-------------------------------------------------------------------|
|---777888101010888777555444---888101010121212131313121212101010888-|
|888------------------------888-------------------------------------|

twice
1:24
|-----------------|
|-----------------|
|-----------------|
|-----------------|
|8-7-5-10-8-7-8-7-|
|-0-0-0--0-0-0-0--|

1:29
|-----------------------------|
|-----------------------------|
|-----------------------------|
|----3-3----2-2----3-3----2-2-|
|1111-1-1111-1-0000-0-0000-0--|
|-----------------------------|

1:32
|-----------------------|
|-----------------------|
|-----------------------|
|-----------------------|
|12-10-8-13-12-10-12-10-|
|--0--0-0--0--0--0--0---|

ima take a wild guess at this one
1:36
|--------------------------------------------------------|
|--------------------------------------------------------|
|--------------------------------------------------------|
|--------------------------------------------------------|
|--------13--13--------12-12--------13--13--------12--12-|
|12121212--12--12121212-12--10101010--10--10101010--10---|

1:40
|----------|
|----------|
|----------|
|----------|
|----------|
|0000(x4)-0

1:44
|--------------------------|
|--------------------------|
|--------------------------|
|--------------------------|
|--------------------------|
|0000-0000-0-0-00000-00000-|

2:06
|--------------------------------------------|
|--------------------------------------------|
|--------------------------------------------|
|--------------------------------------------|
|------00000-00000-00000-00000-00000-0-0-0-0-|
|00000-00000-00000-00000-00000-00000-0-0-0-0-|

twice
2:25
|-------------------|
|-------------------|
|-------------------|
|-------------------|
|12-10-8-7-8-10-8-7-|
|--0--0-0-0-0--0-0--|

2:29
|--------------------------------|
|--------------------------------|
|--------------------------------|
|--------------------------------|
|--13p12\8--13p12-12p10-10p8-8p7-|
|00-------00---------------------|

2:33
|-------------------------------------------------------|
|-------------------------------------------------------|
|-------------------------------------------------------|
|-------------------------------------------------------|
|--12h13p12\8-------------------------------------------|
|00----------881212-771010------------------------------|

repeat the last 3 riffs again

twice
2:40
|------------------------------------------------------|
|------------------------------------------------------|
|------------------------------------------------------|
|------------------------------------------------------|
|------------------------------------------------------|
|555555558888777744444444------------------------------|

solo(im not even sure what the rythm is, its perty fast)

3:22
|----------------------------------|
|----------------------------------|
|----------------------------------|
|----------------------------------|
|----------------------------------|
|000 000 000 000 guitars and bass switchup

a gazillion times until around 3:40 you slow down and then the end
|---------------------------------------------|
|---------------------------------------------|
|---------------------------------------------|
|---------------------------------------------|
|---------------------------------------------|
|000 000 000 000------------------------------|
Tap to rate this tab
# A B C D E F G H I J K L M N O P Q R S T U V W X Y Z