Song name
# A B C D E F G H I J K L M N O P Q R S T U V W X Y Z

We Are The End - A Portrait Painted By A Prince tab

-------------------------------------------------------------------------------
                 A Portrait Painted By A Prince - We Are The End
-------------------------------------------------------------------------------
Tabbed by: david huggins
Email: metalisking4@gmail.com

Tuning: 7 string guitar in drop G# (G#EbAbDbGbBbEb)
m= palm mute

Intro: cast down from the heavens with broken wings...
Eb|--------------------------------------------|
Bb|--------------------------------------------|
Gb|--------------------------------------------|
Db|--------------------------------------------|
Ab|--------------------------------------------|
Eb|-44-3-2-2-1-2-1-----------------------------|
G#|-44-3-2-2-1-2-1-----------------------------|
    mm m m m m m m
follow the drums with the palm mutes. hit the 4's faster than the others.
like, dundun dun dun dun dun dun dun.

listen to the part in the song to know how it goes.
its directly after the mutes, a little quick.
Eb|--------------------------------------------|
Bb|--------------------------------------------|
Gb|--------------------------------------------|
Db|-6---6/8\6-8--------------------------------|
Ab|-5---5/7\5-7--------------------------------|
Eb|-4-0-4/6\4-6--------------------------------|
G#|---0----------------------------------------|
      m
tremelo pick the next six measures.
VERSE RIFF 1: do both of these measures twice.
the 7 at the end lasts eight notes while all the others last 4 notes.
Eb|--------------------------------------------|
Bb|--------------------------------------------|
Gb|--------------------------------------------|
Db|--------------------------------------------|
Ab|--------------------------------------------|
Eb|-5---5-4---4-7-4-5---5-4-7------------------|
G#|---4-----4---------4------------------------|

all of these last 4 notes while the four at the end lasts 8.
Eb|--------------------------------------------|
Bb|--------------------------------------------|
Gb|--------------------------------------------|
Db|--------------------------------------------|
Ab|--------------------------------------------|
Eb|-5---5-4---4-5-4-5-4-5-4-5-4----------------|
G#|---4-----4----------------------------------|

VERSE RIFF 2:
everything lasts four notes but the four at the end lasts eight notes.
Eb|--------------------------------------------|
Bb|--------------------------------------------|
Gb|--------------------------------------------|
Db|--------------------------------------------|
Ab|--------------------------------------------|
Eb|-5---5-7-4-5---6-8-9-8-6---5-4--------------|
G#|---4---------4-----------4------------------|

everything lasts four notes but the 12 and 11 last eight notes.
Eb|--------------------------------------------|
Bb|--------------------------------------------|
Gb|--------------------------------------------|
Db|--------------------------------------------|
Ab|--------------------------------------------|
Eb|-5---5-7-4-5---6-8-9-8-6-12-11--------------|
G#|---4---------4------------------------------|

do this one more time
Eb|--------------------------------------------|
Bb|--------------------------------------------|
Gb|--------------------------------------------|
Db|--------------------------------------------|
Ab|--------------------------------------------|
Eb|-5---5-7-4-5---6-8-9-8-6---5-4--------------|
G#|---4---------4-----------4------------------|

everything lasts 4 notes but the 4 at the end lasts eight.
Eb|--------------------------------------------|
Bb|--------------------------------------------|
Gb|--------------------------------------------|
Db|--------------------------------------------|
Ab|--------------------------------------------|
Eb|-5---5-7-4-5---6-8-9-8-6-4------------------|
G#|---4---------4------------------------------|

one thousand years of destruction...
tremelo pick all of this besides the mutes, follow the song and figure out the rhythm, 
goes with the lyrics.
do this twice.
E: means extend the note. it lasts longer than the others
Eb|---------------------------------------------|
Bb|---------------------------------------------|
Gb|---------------------------------------------|
Db|---------------------------------------------|
Ab|---------------------------------------------|
Eb|-5-8-5-8-5-4-----4-5-4-5-8-5-8-5-4-2-4-1-3-0-|
G#|-------------3-4-------------------2-4-1-3-0-|
    E                   E E           m m m m m

BREAKDOWN: do this twice.
picked very fast.
Eb|--------------------------------------------|
Bb|--------------------------------------------|
Gb|--------------------------------------------|
Db|--------------------------------------------|
Ab|--------------------------------------------|
Eb|-0-0-0-0-0-0-0-0-0-0-0-0-0-0-0-0-0~---------|
G#|-0-0-0-0-0-0-0-0-0-0-0-0-0-0-0-0-0~---------|
    m m m m m m m m m m m m m m m m m
    eeeeeeeeeeeeeeeeeeeeeeeeeeeeeeeerased.

picked fast besides the 1 3 2 4.
Eb|--------------------------------------------|
Bb|--------------------------------------------|
Gb|--------------------------------------------|
Db|--------------------------------------------|
Ab|--------------------------------------------|
Eb|-0-0-0-0-0-0-0-0-0-0-0-0-0-0-0-0-1-3-2-4----|
G#|-0-0-0-0-0-0-0-0-0-0-0-0-0-0-0-0-1-3-2-4----|
    m m m m m m m m m m m m m m m m m m m m
    frooooooooooommmmmmmmmmmmmmmmmm existence.

BREAKDOWN PT2: do this twice.
Eb|----------------------------------------8-12-8---8-12-8---8-12-17--|
Bb|-------------------------------------10--------10-------10---------|
Gb|-----------------------------------9-------------------------------|
Db|--------------------------------10---------------------------------|
Ab|-------------------------------------------------------------------|
Eb|-0-0-0-0-0-0-0-0-0-0-0-0-0-0-0-0-----------------------------------|
G#|-0-0-0-0-0-0-0-0-0-0-0-0-0-0-0-0-----------------------------------|
    m m m m m m m m m m m m m m m m           H        H           T

picked fast besides the 1 3 2 4.
Eb|--------------------------------------------|
Bb|--------------------------------------------|
Gb|--------------------------------------------|
Db|--------------------------------------------|
Ab|--------------------------------------------|
Eb|-0-0-0-0-0-0-0-0-0-0-0-0-0-0-0-0-1-3-2-4----|
G#|-0-0-0-0-0-0-0-0-0-0-0-0-0-0-0-0-1-3-2-4----|
    m m m m m m m m m m m m m m m m m m m m

BREAKDOWN PT3:
all shall suffer all shall suffer....
(pinch harmonic on the last 4 and 3)
Eb|--------------------------------------------|
Bb|--------------------------------------------|
Gb|--------------------------------------------|
Db|--------------------------------------------|
Ab|---------------------------------4----------|
Eb|-1-3-4-3-1-3-4313-1-3-4-3-543232------------|
G#|-1-3-4-3-1-3-4313-1-3-4-3-543232------------|
    m m m m m m mmmm m m m m mmmmmm +

Eb|---------------------------------------------|
Bb|---------------------------------------------|
Gb|---------------------------------------------|
Db|---------------------------------------------|
Ab|---------------------------------------------|
Eb|-1-3-4-3-1-3-4313-1-3-4-3-543232-------------|
G#|-1-3-4-3-1-3-4313-1-3-4-3-543232-3-----------|
    m m m m m m mmmm m m m m mmmmmm +

do this part before the chorded part
Eb|--------------------------------------------|
Bb|--------------------------------------------|
Gb|--------------------------------------------|
Db|--------------------------------------------|
Ab|-------4-X-4-X-4-X--------------------------|
Eb|-0-0-0-3-X-3-X-3-X--------------------------|
G#|-0-0-0--------------------------------------|
    m m m

not sure about this measure.
Eb|----------------------------------------------------------|
Bb|----------------------------------------------------------|
Gb|----------------------------------------------------------|
Db|-4-4444-3-3333-4-4444-3-3333-3-3333-4-4444-3-3333--4-4444-|
Ab|-2-2222-1-1111-2-2222-1-1111-1-1111-2-2222-1-1111--2-2222-|
Eb|-2-2222-1-1111-2-2222-1-1111-1-1111-2-2222-1-1111--2-2222-|
G#|-2-2222-1-1111-2-2222-1-1111-1-1111-2-2222-1-1111--2-2222-|

not sure about this one either, tremelo picked.
Eb|--------------------------------------------|
Bb|--------------------------------------------|
Gb|--------------------------------------------|
Db|--------------------------------------------|
Ab|--------------------------------------------|
Eb|------4-7-----5-4-----4-7-5-4---------------|
G#|--3-4-----3-4-----3-4---------3-4-----------|

Prelude Breakdown:
his mark, will shine, before our eyes...
just hit these two triplets 8 times.
Eb|--------------------------------------------|
Bb|--------------------------------------------|
Gb|--------------------------------------------|
Db|--------------------------------------------|
Ab|--------------------------------------------|
Eb|0-0-0--0-0-0--------------------------------|
G#|0-0-0--0-0-0--------------------------------|
   m m m  m m m
FATHER! SAVE US!
do it again except a little slower and let them ring.
Eb|--------------------------------------------|
Bb|--------------------------------------------|
Gb|--------------------------------------------|
Db|--------------------------------------------|
Ab|--------------------------------------------|
Eb|0-0-0--0-0-0--------------------------------|
G#|0-0-0--0-0-0--------------------------------|
   m m m  m m m

now repeat verse riff 1 and hit a single palm mute at the end of the song.
thank you for using my tab,
if you want to see how its played, watch my guitar cover. copy and paste the link to 
video in your search bar.

http://www.youtube.com/watch?v=yEKgt8_ZpR0

thanks, and keep it metal.

   -david

************************************

| /   slide up
| \   slide down
| h   hammer-on
| p   pull-off
| ~   vibrato
| +   harmonic
| x   Mute note
| b   Bend
| pb  Pre-bend
| br  Bend release
| pbr Pre-bend release
| brb Bend release bend

************************************
Tap to rate this tab
 
# A B C D E F G H I J K L M N O P Q R S T U V W X Y Z