Song name
# A B C D E F G H I J K L M N O P Q R S T U V W X Y Z

We Are The Fallen - Bury Me Alive tab

-----------------------------------------------------------------------------
			     Bury Me Alive-We Are The Fallen
-----------------------------------------------------------------------------
Tabbed by: route_desperado
Email: metalfreak@hotmail.se

Tuning: dropC

pretty easy song to play! I tabbed this in dropC so if you want to play in 
dropD just move everything down 2 steps, for examlpe:

-4- becomes -2-

Intro:
Guitar 1:
e|-44---------44---------99---------77----------------------------------|
B|----22-4p5-----22-4p5-----22-4p5-----22-4p5---------------------------|
G|----------------------------------------------------------------------|
D|----------------------------------------------------------------------|
A|----------------------------------------------------------------------|
E|----------------------------------------------------------------------|

Guitar 2: (just the chords)
e|----------------------------------------------------------------------|
B|----------------------------------------------------------------------|
G|-6-----9--------------------------------------------------------------|
D|-6-6-7-9--------------------------------------------------------------|
A|-4-6-7-7--------------------------------------------------------------|
E|---6-7----------------------------------------------------------------|

e|----------------------------------------------------------------------|
B|----------------------------------------------------------------------|
G|-6--------------------------------------------------------------------|
D|-6-6-9-4--------------------------------------------------------------|
A|-4-6-9-4--------------------------------------------------------------|
E|---6-9-4--------------------------------------------------------------|

Verse: no guitar

Ref: (just the chords)
Both guitars
e|----------------------------------------------------------------------|
B|----------------------------------------------------------------------|
G|-6-----9--------------------------------------------------------------|
D|-6-6-7-9--------------------------------------------------------------|
A|-4-6-7-7--------------------------------------------------------------|
E|---6-7----------------------------------------------------------------|

e|----------------------------------------------------------------------|
B|----------------------------------------------------------------------|
G|-6--------------------------------------------------------------------|
D|-6-6-9-4--------------------------------------------------------------|
A|-4-6-9-4--------------------------------------------------------------|
E|---6-9-4--------------------------------------------------------------|

Verse: no guitar

Ref: (just the chords)
Both guitars
e|----------------------------------------------------------------------|
B|----------------------------------------------------------------------|
G|-6-----9--------------------------------------------------------------|
D|-6-6-7-9--------------------------------------------------------------|
A|-4-6-7-7--------------------------------------------------------------|
E|---6-7----------------------------------------------------------------|

e|----------------------------------------------------------------------|
B|----------------------------------------------------------------------|
G|-6--------------------------------------------------------------------|
D|-6-6-9-4--------------------------------------------------------------|
A|-4-6-9-4--------------------------------------------------------------|
E|---6-9-4--------------------------------------------------------------|

Bridge:

Guitar 1
Haven't got the solo yet, post it when it's perfect

Guitar 2: (just the chords)
e|----------------------------------------------------------------------|
B|----------------------------------------------------------------------|
G|-----6-4--------------------------------------------------------------|
D|-7-4-6-4--------------------------------------------------------------|
A|-7-4-4-2--------------------------------------------------------------|
E|-7-4------------------------------------------------------------------|

e|----------------------------------------------------------------------|
B|----------------------------------------------------------------------|
G|-----6-4-6------------------------------------------------------------|
D|-7-4-6-4-6------------------------------------------------------------|
A|-7-4-4-2-4------------------------------------------------------------|
E|-7-4------------------------------------------------------------------|

Ref: (just the chords)
Both guitars
e|----------------------------------------------------------------------|
B|----------------------------------------------------------------------|
G|-6-----9--------------------------------------------------------------|
D|-6-6-7-9--------------------------------------------------------------|
A|-4-6-7-7--------------------------------------------------------------|
E|---6-7----------------------------------------------------------------|

e|----------------------------------------------------------------------|
B|----------------------------------------------------------------------|
G|-6--------------------------------------------------------------------|
D|-6-6-9-4--------------------------------------------------------------|
A|-4-6-9-4--------------------------------------------------------------|
E|---6-9-4--------------------------------------------------------------|

************************************

| /   slide up
| \   slide down
| h   hammer-on
| p   pull-off
| ~   vibrato
| +   harmonic
| x   Mute note
| b   Bend
| pb  Pre-bend
| br  Bend release
| pbr Pre-bend release
| brb Bend release bend

************************************

for any corrections, just e-mail me :)
Tap to rate this tab
 
# A B C D E F G H I J K L M N O P Q R S T U V W X Y Z