Guitaretab - guitar tabs
Song name
# A B C D E F G H I J K L M N O P Q R S T U V W X Y Z

We Are The Fury - Camera Tricks tab

d|---------------------|
A|---------3-----------|
F|-2-5-2-5---5-2-0-2-5-|
C|-2-2-2-2---2-2-0-2-2-|
G|-0-0-0-0---0-0-0-0-0-|
D|---------------------| x8

d|-----------------------------------------|
A|-----------------------------------------|
F|-9--9--9--9--9--9--7-5-7-7-7-7-7-7-2-5-7-|
C|-10-10-10-10-10-10-----7-7-7-7-7-7-------|
G|-----------------------------------------|
D|-----------------------------------------|

d|------------------------------------|
A|------------------------------------|
F|-2-2-2-2-2-2-2-2-5-5-5-5-7----------|
C|-2-2-2-2-2-2-2-2-5-5-5-5-7-5--------|
G|-----------------------------3-5b~r-|
D|------------------------------------|

d|------------------------------------------------------|
A|------------------------------------------------------|
F|-------------------------------7-7-7-7-7-7-7b~r-------|
C|-3-3--5-5--3-3--5-5--3-3--5-5--7-7-7-7-7-7-7b~r---x-x-|
G|-3-3--5-5--3-3--5-5--3-3--5-5--5-5-5-5-5-5-5b~r---x-x-|
D|-1-1--3-3--1-1--3-3--1-1--3-3---------------------x-x-|

d|-----------------------------------------------------------------|
A|-----------------------------------------------------------------|
F|---------7-7-7-7---------7-7-7-7---------7-7-7-7-----------------|
C|-7-7-7-7-7-7-7-7-5-5-5-5-7-7-7-7-7-7-7-7-7-7-7-7-5-5-5-5-5-5-5-5-|
G|-7-7-7-7-5-5-5-5-5-5-5-5-5-5-5-5-7-7-7-7-5-5-5-5-5-5-5-5-5-5-5-5-|
D|-5-5-5-5---------3-3-3-3---------5-5-5-5---------3-3-3-3-3-3-3-3-| x2

d|---------------------|
A|---------3-----------|
F|-2-5-2-5---5-2-0-2-5-|
C|-2-2-2-2---2-2-0-2-2-|
G|-0-0-0-0---0-0-0-0-0-|
D|---------------------| x2

d|10~-12~--------------------------------------------|
A|---------------------------------------------------|
F|-------9--9--9--9--9--9--9--9--7-7-7-7-7-7-7-2-5-7-|
C|-------10-10-10-10-10-10-10-10-7-7-7-7-7-7-7-------|
G|---------------------------------------------------|
D|---------------------------------------------------|

d|------------------------------------|
A|------------------------------------|
F|-2-2-2-2-2-2-2-2-5-5-5-5-7----------|
C|-2-2-2-2-2-2-2-2-5-5-5-5-7-5--------|
G|-----------------------------3-5b~r-|
D|------------------------------------|
[ Tab from: http://www.guitaretab.com/w/we-are-the-fury/90470.html ]
d|------------------------------------------------|
A|------------------------------------------------|
F|-------------------------------7-7-7-7-7-7-7b~r-|
C|-3-3--5-5--3-3--5-5--3-3--5-5--7-7-7-7-7-7-7b~r-|
G|-3-3--5-5--3-3--5-5--3-3--5-5--5-5-5-5-5-5-5b~r-|
D|-1-1--3-3--1-1--3-3--1-1--3-3-------------------|

d|-----------------------------------------------------------------|
A|-----------------------------------------------------------------|
F|---------7-7-7-7---------7-7-7-7---------7-7-7-7-----------------|
C|-7-7-7-7-7-7-7-7-5-5-5-5-7-7-7-7-7-7-7-7-7-7-7-7-5-5-5-5-5-5-5-5-|
G|-7-7-7-7-5-5-5-5-5-5-5-5-5-5-5-5-7-7-7-7-5-5-5-5-5-5-5-5-5-5-5-5-|
D|-5-5-5-5---------3-3-3-3---------5-5-5-5---------3-3-3-3-3-3-3-3-| x2

d|---------|
A|----3-2~-|
F|-2~-2-2~-|
C|-2~-2-2~-|
G|-0~-0-0~-|
D|---------| x2

d|-10-12-15-17~-|
A|--------------|
F|--------------|
C|--------------|
G|--------------|
D|--------------|

d|----------------------------------------------|
A|----------------------------------------------|
F|-------------------------------7-7-7-7-7-7b~r-|
C|-3-3--5-5--3-3--5-5--3-3--5-5--7-7-7-7-7-7b~r-|
G|-3-3--5-5--3-3--5-5--3-3--5-5--5-5-5-5-5-5b~r-|
D|-1-1--3-3--1-1--3-3--1-1--3-3-----------------|

d|--------------------------------------------------|
A|--------------------------------------------------|
F|-------------------------------7-7-7-7-7-7-7b~r-0-|
C|-3-3--5-5--3-3--5-5--3-3--5-5--7-7-7-7-7-7-7b~r---|
G|-3-3--5-5--3-3--5-5--3-3--5-5--5-5-5-5-5-5-5b~r---|
D|-1-1--3-3--1-1--3-3--1-1--3-3---------------------|

d|-----------------------------------------------------------------|
A|-----------------------------------------------------------------|
F|---------7-7-7-7---------7-7-7-7---------7-7-7-7-----------------|
C|-7-7-7-7-7-7-7-7-5-5-5-5-7-7-7-7-7-7-7-7-7-7-7-7-5-5-5-5-5-5-5-5-|
G|-7-7-7-7-5-5-5-5-5-5-5-5-5-5-5-5-7-7-7-7-5-5-5-5-5-5-5-5-5-5-5-5-|
D|-5-5-5-5---------3-3-3-3---------5-5-5-5---------3-3-3-3-3-3-3-3-| x2

d|---------------------|
A|---------3-----------|
F|-2-5-2-5---5-2-0-2-5-|
C|-2-2-2-2---2-2-0-2-2-|
G|-0-0-0-0---0-0-0-0-0-|
D|---------------------| x4

d|---------|
A|---------|
F|---------|
C|-7-7-7-7-|
G|-7-7-7-7-|
D|-5-5-5-5-|