Song name
# A B C D E F G H I J K L M N O P Q R S T U V W X Y Z

We Are The In Crowd - Lights Out tab

if you can correct anything on this email me retarded_nerdkid@hotmial.com 
enjoy!

E|--------------------------------------------------|
B|--------------------------------------------------|
G|----11-11--14-14--9~ 9-9-9--12--12--12-12--11-9-7-|
D|----11-11--14-14--9~ 9-9-9--12--12--12-12--11-9-7-|
A|----9--9---12-12--7~ 7-7-7--10--10--10-10--9--7-5-|
D|--------------------------------------------------|

E|--------------------------------------------------|
B|--------------------------------------------------|
G|----11-11--14-14--9~ 9-9-9--12-11-7~-------7-7----|
D|----11-11--14-14--9~ 9-9-9--12-11-7~-------7-7----|
A|----9--9---12-12--7~ 7-7-7--10-9--5~-------5-5----|
D|--------------------------------------------------|
                                             x x

~ hold note
x short and fast
Tap to rate this tab
 
# A B C D E F G H I J K L M N O P Q R S T U V W X Y Z