Song name
# A B C D E F G H I J K L M N O P Q R S T U V W X Y Z

We Are The In Crowd - The Best Thing That Never Happened tab

---------------------------------------------------------------
The Best Thing (That Never Happened) - We Are The In Crowd
---------------------------------------------------------------

Here's my interpretation of WATIC - The Best Thing (That Never Happened)
I hope you like it, any feedback would be greatly appreciated! :)


Intro  (0:02 - 0:13)

Guitar One:

E|------|
B|------|
G|------|
D|------|
A|--10\-|
D|--12\-|

Main Riff

E|--------------------------------|--------------------------------|
B|--------------------------------|--------------------------------|
G|--------------------------------|--------------------------------|
D|--------------------------------|------------------------xx------|
A|--------------------------------|------------------------xx------|
D|-8-8--0--0-0--5--5-5--0--0-0--8-|-8-8--0--0-0--5--5-5--0-xx------|

E|--------------------------------|--------------------------------|
B|--------------------------------|--------------------------------|
G|--------------------------------|--------------------------------|
D|--------------------------------|--------------------------------|
A|--------------------------------|--------------------------------|
D|-8-8--0--0-0--5--5-5--0--0-0--8-|-8-8--0--0-0--5--5-5--0--15\----|

Guitar Two:
                 x4
E|--10--10--10--10-|
B|--12--10--11--10-|
G|--10--10--12--10-|
D|-----------------|
A|-----------------|
D|-----------------|

Verse (0:13 - 0:37)

Guitar Two:
                 x7
E|--10--10--10--10-|--10--10---------|
B|--12--10--11--10-|--12--10---------|
G|--10--10--12--10-|--10--10---------|
D|-----------------|-----------------|
A|-----------------|-----------------|
D|-----------------|-----------------|

Guitar One:
                                  
E|----------------------------------|
B|----------------------------------|
G|----------------------------------|
D|----------------------------------|
A|----------------------------------|
D|--8-8--8--0-0--0--5-5--5--0-0--0--|
P.M . .  .  . .  .  . .  .  . .  .

E|----------------------------------|--------------------------------|
B|----------------------------------|--------------------------------|
G|----------------------------------|--------------------------------|
D|----------------------------------|-----------------5-5-5-5--0-0-0-|
A|----------------------------------|-8-8--8--0-0--0--5-5-5-5--0-0-0-|
D|--8-8--8--0-0--0--5-5--5--0-0--0--|-8-8--8--0-0--0--5-5-5-5--0-0-0-|
P.M . .  .  . .  .  . .  .  . .  .    . .  .  . .  release

Chorus (0:37 - 1:00)

Guitar One:

E|------------------------------------|
B|------------------------------------|
G|------------------------------------|
D|-8~~~~--0~~~~--5555-5555-1111-1111--|
A|-8~~~~--0~~~~--5555-5555-1111-1111--|
D|-8~~~~--0~~~~--5555-5555-1111-1111--|
                           ^ (1st fret)

E|----------------------|
B|----------------------|
G|----------------------|
D|-5555-5555--1111-1111-|
A|-5555-5555--1111-1111-|
D|-5555-5555--1111-1111-|

E|---------------------------------------|
B|---------------------------------------|
G|-3-3-3-3--7-7-7-7----------------------|
D|-3-3-3-3--7-7-7-7--5555-5555-1111-1111-|
A|-1-1-1-1--5-5-5-5--5555-5555-1111-1111-|
D|-------------------5555-5555-1111-1111-|

E|----------------------|
B|----------------------|
G|----------------------|
D|-5555-5555--1111-1111-|
A|-5555-5555--1111-1111-|
D|-5555-5555--1111-1111-|

Guitar Two:

E|-------------------------------------|
B|-3~~~~--6~~~~-------------8888-8888--|
G|-3~~~~--7~~~~--3333-3333--8888-8888--|
D|-3~~~~--7~~~~--0000-0000--8888-8888--|
A|-1~~~~--5~~~~-------------6666-6666--|
D|-------------------------------------|

E|-----------------------|
B|-----------------------|
G|-3333-3333--8888-8888--|
D|-0000-0000--8888-8888--|
A|------------6666-6666--|
D|-----------------------|

E|----------------------------------------|
B|-3-3-3-3----------------------8888-8888-|
G|-3-3-3-3--7-7-7-7--3333-3333--8888-8888-|
D|-3-3-3-3--7-7-7-7--0000-0000--8888-8888-|
A|-1-1-1-1--5-5-5-5-------------6666-6666-|
D|----------------------------------------|

E|-----------------------|
B|-----------------------|
G|-3333-3333--8888-8888--|
D|-0000-0000--8888-8888--|
A|------------6666-6666--|
D|-----------------------|

Verse Two (1:04 - 1:28)

Guitar Two:

                x5
E|--10--10--10--10-|
B|--12--10--11--10-|
G|--10--10--12--10-|
D|-----------------|
A|-----------------|
D|-----------------|

Guitar One:

                                  x3
E|----------------------------------|
B|----------------------------------|
G|----------------------------------|
D|----------------------------------|
A|----------------------------------|
D|--8-8--8--0-0--0--5-5--5--0-0--0--|
P.M . .  .  . .  .  . .  .  . .  .

Main Riff again (1:58 - 2:10)

Guitar One:
                                x4
E|--------------------------------|
B|--------------------------------|
G|--------------------------------|
D|--------------------------------|
A|--------------------------------|
D|-8-8--0--0-0--5--5-5--0--0-0--8-|

Guitar Two: 
                                    x4
E|-------------------------------------|
B|-------------------------------------|
G|-12--10--12--10--12--10--12-15-12-11-|
D|-------------------------------------|
A|-10---8--10---8--10---8--10-13-10--8-|
D|-------------------------------------|


Tap to rate this tab
# A B C D E F G H I J K L M N O P Q R S T U V W X Y Z