Song name
# A B C D E F G H I J K L M N O P Q R S T U V W X Y Z

We Are The Ocean - The Waiting Room tab

THE WAITING ROOM
WE ARE THE OCEAN
tabbed by T
direct any hate mail / corrections to wasssup@hotmail.co.uk

no timings given, just the notes

VERSE
rhythm
e|-----------------------------------------------------------------|
B|-----------------------------------------------------------------|
G|-4-4-4-4-4-4-4-4-4-4-4-4-4-4-4-4-2-2-2-2-2-2-2-2-2-2-2-2-2-2-2-2-|
D|-4-4-4-4-4-4-4-4-4-4-4-4-4-4-4-4-2-2-2-2-2-2-2-2-2-2-2-2-2-2-2-2-| X2
A|-2-2-2-2-2-2-2-2-2-2-2-2-2-2-2-2-0-0-0-0-0-0-0-0-0-0-0-0-0-0-0-0-|
E|-----------------------------------------------------------------|
lead
e|---5---5---5---5---5---5---5---5---2---2---2---2-0000000000000000-|
B|--0---0---0---0---0---0---0---0---2---2---2---2--5555555555555555-|
G|-7---7---7---7---7---7---7---7---4---4---4---4--------------------|
D|------------------------------------------------------------------| 
A|------------------------------------------------------------------|
E|------------------------------------------------------------------|

e|---5---5---5---5---9---9---7---7---2---2---2---2-0000000000000000-|
B|--0---0---0---0---0---0---0---0---2---2---2---2--5555555555555555-|
G|-7---7---7---7---7---7---7---7---4---4---4---4--------------------|
D|------------------------------------------------------------------| 
A|------------------------------------------------------------------|
E|------------------------------------------------------------------|

CHORUS
rhythm
cant hear the strumming pattern, so just play about with the chords
e|-------------------|
B|-------------------|
G|-------------------|
D|-5----7----9--7--5-| X2
A|-5----7----9--7--5-|
E|-3----5----7--5--3-|

e|---------|
B|---------|
G|---------|
D|-9--7--5-|
A|-9--7--5-|
E|-7--5--3-|
lead
it's very faint on the track, but if you listen hard you can hear it
e|-------------------------------------------------------|
B|-----------------2h3p2--0000000000---------------------|
G|-4-4p2h4-4-2---4------2-4444444444---------------------|
D|-------------4-----------------------4------2--4-2-----| X2
A|----------------------------------------5-2--------5-2-|
E|-------------------------------------------------------|

e|---------|
B|---------|
G|---------|
D|-4---2---|
A|---5---2-|
E|---------|

VERSE
rhythm
e|-----------------------------------------------------------------|
B|-----------------------------------------------------------------|
G|-4-4-4-4-4-4-4-4-4-4-4-4-4-4-4-4-2-2-2-2-2-2-2-2-2-2-2-2-2-2-2-2-|
D|-4-4-4-4-4-4-4-4-4-4-4-4-4-4-4-4-2-2-2-2-2-2-2-2-2-2-2-2-2-2-2-2-| X2
A|-2-2-2-2-2-2-2-2-2-2-2-2-2-2-2-2-0-0-0-0-0-0-0-0-0-0-0-0-0-0-0-0-|
E|-----------------------------------------------------------------|
lead
e|---5---5---5---5---5---5---5---5---2---2---2---2-0000000000000000-|
B|--0---0---0---0---0---0---0---0---2---2---2---2--5555555555555555-|
G|-7---7---7---7---7---7---7---7---4---4---4---4--------------------|
D|------------------------------------------------------------------|
A|------------------------------------------------------------------|
E|------------------------------------------------------------------|

e|---5---5---5---5---9---9---7---7---2---2---2---2-0000000000000000-|
B|--0---0---0---0---0---0---0---0---2---2---2---2--5555555555555555-|
G|-7---7---7---7---7---7---7---7---4---4---4---4--------------------|
D|------------------------------------------------------------------| 
A|------------------------------------------------------------------|
E|------------------------------------------------------------------|

CHORUS
rhythm
same as above
e|-------------------|
B|-------------------|
G|-------------------|
D|-5----7----9--7--5-| X2
A|-5----7----9--7--5-|
E|-3----5----7--5--3-|

e|---------|
B|---------|
G|---------|
D|-9--7--5-|
A|-9--7--5-|
E|-7--5--3-|
lead
e|-------------------------------------------------------|
B|-----------------2h3p2--0000000000---------------------|
G|-4-4p2h4-4-2---4------2-4444444444---------------------|
D|-------------4-----------------------4------2--4-2-----| X2
A|----------------------------------------5-2--------5-2-|
E|-------------------------------------------------------|

e|---------|
B|---------|
G|---------|
D|-4---2---|
A|---5---2-|
E|---------|

BRIDGE
rhythm
im too lazy to write out the rhythm, but its just straight 8th notes
e|-----------------------|
B|-----------------------|
G|-----------------------|
D|-----------------------| X2
A|-2----4----5----7----9-|
E|-----------------------|
lead             
trem picked          slowly bend throughout the bar
e|-7----9----10---12---14-|
B|------------------------|
G|------------------------|
D|------------------------| X2
A|------------------------|
E|------------------------|
rhythm
e|-2-------3------5-|
B|-3-------3------5-|
G|-4-------4------6-|
D|-4-------5------7-|
A|-2-------5------7-|
E|---------3------5-|
lead
e|-2-----2---2----|
B|--3---3-23--23--|
G|---4-4----4---4-|
D|----------------| X4
A|----------------|
E|----------------|

CHORUS
rhythm
same as above
e|-3----5------------|
B|-3----5------------|
G|-4----6------------|
D|-5----7----9--7--5-|
A|-5----7----9--7--5-|
E|-3----5----7--5--3-|

e|-------------------|
B|-------------------|
G|-------------------|
D|-5----7----9--7--5-|
A|-5----7----9--7--5-|
E|-3----5----7--5--3-|

e|---------|
B|---------|
G|---------|
D|-9--7--5-|
A|-9--7--5-|
E|-7--5--3-|
lead
e|-------------------|
B|-------------------|
G|-------------------|
D|-4------2--4-2-----|
A|----5-2--------5-2-|
E|-------------------|

e|-------------------------------------------------------|
B|-----------------2h3p2--0000000000---------------------|
G|-4-4p2h4-4-2---4------2-4444444444---------------------|
D|-------------4-----------------------4------2--4-2-----|
A|----------------------------------------5-2--------5-2-|
E|-------------------------------------------------------|

e|---------|
B|---------|
G|---------|
D|-4---2---|
A|---5---2-|
E|---------|

e|---------------------------------|
B|---------------------------------|
G|-4-4-4-4-4-4-4-4-4-4-4-4-4-4-4-4-|
D|-4-4-4-4-4-4-4-4-4-4-4-4-4-4-4-4-|
A|-2-2-2-2-2-2-2-2-2-2-2-2-2-2-2-2-|
E|---------------------------------|
Tap to rate this tab
# A B C D E F G H I J K L M N O P Q R S T U V W X Y Z