Song name
# A B C D E F G H I J K L M N O P Q R S T U V W X Y Z

We Are The Ocean - The Waiting Room tab

This is basically a tab that's already up, but with the right rhythm guitar. The 
lead is already in a tab by a user called T. 
Enjoy :)

Verse
Rhythm
e|-------------------------------------------------|
B|-------------------------------------------------|
G|--7--7--7--7--7--7--7--7--6--6--6--6--6--6--6--6-|
D|--9--9--9--9--9--9--9--9--7--7--7--7--7--7--7--7-|
A|--9--9--9--9--9--9--9--9--7--7--7--7--7--7--7--7-|
D|--9--9--9--9--9--9--9--9--7--7--7--7--7--7--7--7-|x4

Lead
e|---5---5---5---5---5---5---5---5---2---2---2---2-0000000000000000-|
B|--0---0---0---0---0---0---0---0---2---2---2---2--5555555555555555-|
G|-7---7---7---7---7---7---7---7---4---4---4---4--------------------|
D|------------------------------------------------------------------| 
A|------------------------------------------------------------------|
D|------------------------------------------------------------------|x2

e|---5---5---5---5---9---9---7---7---2---2---2---2-0000000000000000-|
B|--0---0---0---0---0---0---0---0---2---2---2---2--5555555555555555-|
G|-7---7---7---7---7---7---7---7---4---4---4---4--------------------|
D|------------------------------------------------------------------| 
A|------------------------------------------------------------------|
D|------------------------------------------------------------------|x2

Pre-chorus

Rhythm

e|-----|
b|-----|
g|--7~-|
D|--9~-|
A|--9~-|
D|--9~-|

Lead (I think, anyway :S)
e|-2-----2--|
B|--3---3---|
G|---4-4----|
D|----------|
A|----------|
D|----------|

Chorus

Rhythm (no timing, sorry :/)

e|----------------------------------|---------------------------|
B|----------------------------------|---------------------------|
G|--4-4-4-4-4-4-4-4-6-6-6-6-6-6-6-6-|-7-7-6-6-4-4-4-4-4-4-4-4---|
D|--5-5-5-5-5-5-5-5-7-7-7-7-7-7-7-7-|-9-9-7-7-5-5-5-5-5-5-5-5---|
A|--5-5-5-5-5-5-5-5-7-7-7-7-7-7-7-7-|-9-9-7-7-5-5-5-5-5-5-5-5---|
D|--5-5-5-5-5-5-5-5-7-7-7-7-7-7-7-7-|-9-9-7-7-5-5-5-5-5-5-5-5---|x2

Lead
e|-------------------------------------------------------|
B|-----------------2h3p2--0000000000---------------------|
G|-4-4p2h4-4-2---4------2-4444444444---------------------|
D|-------------4-----------------------4------2--4-2-----| X2
A|----------------------------------------5-2--------5-2-|
D|-------------------------------------------------------|

e|---------|
B|---------|
G|---------|
D|-4---2---|
A|---5---2-|
D|---------|

Verse again
Chorus again x2

Bridge
Rhythm
e|-----------------------|
B|-----------------------|
G|-----------------------|
D|-----------------------| X2
A|-2----4----5----7----9-|
D|-----------------------|
Lead           
tremolo pick, and slowly bend throughout the 14th fret.
e|-7----9----10---12---14-|
B|------------------------|
G|------------------------|
D|------------------------| X2
A|------------------------|
D|------------------------|

Rhythm

e|-2-------x------x-|
B|-3-------3------5-|
G|-4-------4------6-|
D|-4-------5------7-|
A|-2-------5------7-|
D|---------5------7-|

Lead

e|-2-----2---2----|
B|--3---3-23--23--|
G|---4-4----4---4-|
D|----------------| X4
A|----------------|
D|----------------|

Then the chorus, and the very last bit is this chord, played staccato:

e|-----|
B|-----|
G|---7-|
D|---9-|
A|---9-|
D|---9-|
Tap to rate this tab
 
# A B C D E F G H I J K L M N O P Q R S T U V W X Y Z