Song name
# A B C D E F G H I J K L M N O P Q R S T U V W X Y Z

We As Human - We Fall Apart tab

Artist: WE AS HUMAN
Album:  WE AS HUMAN
Song:   We Fall Apart

Tabbed by: Rulerof52
Tabbed on: Jan 26 2014

You must message me for permission before copying ANY part of this tab!

There is no electric guitar until after the first chorus. 


INTERLUDE |1:17|   "The way we fall apart..."
============
D|-----------------------------------------------------------------| 
A|-13-12-10--------------------------------------------------------|
F|----------12~~---------------------------------------------------|
C|------------------12h14--12\11~~~--------------------------------|
G|-----------------------------------------------------------------|
C|-----------------------------------------------------------------| 


VERSE 2 |1:20|   "You're a liar but I'm a coward"
============
D|-----------------------------------------------------------------| X2
A|-----------------------------------------------------------------|
F|-----------------------------------------------------------------|
C|-4-4-4-4-4-4-4-4-4-4-4-4-4-4-4-4---------------------------------|
G|-2-2-2-2-2-2-2-2-2-2-2-2-2-2-2-2-5-5-5-5-5-5-5-5-5-5-5-5-5-5-5-5-|
C|---------------------------------5-5-5-5-5-5-5-5-5-5-5-5-5-5-5-5-|

D|-----------------------------------------------------------------| X2
A|-----------------------------------------------------------------|
F|-----------------------------------------------------------------|
C|-----------------------------------------------------------------|
G|-7-7-7-7-7-7-7-7-7-7-7-7-7-7-7-7-5-5-5-5-5-5-5-5-5-5-5-5-5-5-5-5-|
C|-7-7-7-7-7-7-7-7-7-7-7-7-7-7-7-7-5-5-5-5-5-5-5-5-5-5-5-5-5-5-5-5-|


CHORUS |1:52|   "But isn't it beautiful"
=============
D|-----------------------------------------------------------------| 
A|-----------------------------------------------------------------|
F|-----------------------------------------------------------------|
C|-0-----5-----2--5--0-----4--0-----5-----2--5--0--2--5------------|
G|-0-----5-----2--5--0-----4--0-----5-----2--5--0--2--5------------|
C|-0-----5-----2--5--0-----4--0-----5-----2--5--0--2--5------------|



BRIDGE |2:26|   "If the world is dark.."
============
D|-----------------------------------------------------------------| 
A|-----------------------------------------------------------------|
F|-----------------------------------------------------------------|
C|-9-------4-------5-------7---------------------------------------|
G|-9-------4-------5-------7---------------------------------------|
C|-9-------4-------5-------7---------------------------------------| 


    //GUITAR 2//
    FINAL CHORUS |3:06|   "But isn't it beautiful"  
    ===================
    D|-----------------------------------------------------------------| 
    A|-15-14-----------------------------------------------------------|
    F|-------14~------16-----------------------------------------------|
    C|-------------16----14/16-16b17b16-12-12h14~----12h14-------------|
    G|-----------------------------------------------------------------|
    C|-----------------------------------------------------------------| 

    D|-----------------------------------------------------------------| 
    A|-----------------------------------------------------------------|
    F|-------16-------16-------------16----14---12/14------------------|
    C|-14-17----14-17----14----14-17-----------------------------------|
    G|----------------------------------17-----------------------------|
    C|-----------------------------------------------------------------| 

    D|-------------------17~---14~-------------------------------------| 
    A|-17b19b17-15-----------------------------------------------------|
    F|-------------18-16-------------14~---9~----7~--------------------|
    C|-----------------------------------------------------------------|
    G|-----------------------------------------------------------------|
    C|-----------------------------------------------------------------| 

Tap to rate this tab
# A B C D E F G H I J K L M N O P Q R S T U V W X Y Z